Cifra Club

Cease Fire

Thurston Moore

Cifra: Principal (violão e guitarra)
Selo Cifra Club: esta cifra foi revisada para atender aos critérios oficiais da nossa Equipe de Qualidade.
tom: F
[Riff A]
TM
B|-----------------------------------|
G|--7-7-7-7-7-7-7-7-7-7-7-7-7-7-7-7--|
D|-----------------------------------|
A|-----------------------------------|
E|-----------------------------------|
E|-----------------------------------|
(Repeat 8 times)

[Riff B] 
(0:25)
TM
B|-----------------------------------|-----------------------------------|
G|--7-7-7-7-7-7-7-7-7-7-7-7-7-7-7-7--|--7-7-7-7-7-7-7-7-7-7-7-7-7-7-7-7--|
D|-----------------------------------|-----------------------------------|
A|-----------------------------------|-----------------------------------|
E|-----------------------------------|-----------------------------------|
E|-----------------------------------|-----------------------------------|

JS
E|-----------------------------------|-----------------------------------|
B|-----7--8--10~---------------------|-----10--8--7~---------------------|
G|-----------------------------------|-----------------------------------|
D|-----------------------------------|-----------------------------------|
A|-----------------------------------|-----------------------------------|
E|-----------------------------------|-----------------------------------|
  (Repeat 3x the whole section)

[Riff C] 
(0:45)
TM
B|-----------------------------------|-----------------------------------|
G|--7-7-7-7-7-7-7-7-7-7-7-7-7-7-7-7--|--7-7-7-7-7-7-7-7-7-7-7-7-7-7-7-7--|
D|-----------------------------------|-----------------------------------|
A|-----------------------------------|-----------------------------------|
E|-----------------------------------|-----------------------------------|
E|-----------------------------------|-----------------------------------|

JS
E|-----------------------------------|-----------------------------------|
B|-----7--8--10~---------------------|-----10--8--7--5--7~---------------|
G|-----------------------------------|-----------------------------------|
D|-----------------------------------|-----------------------------------|
A|-----------------------------------|-----------------------------------|
E|-----------------------------------|-----------------------------------|

[Riff D] 
(0:51)
TM
B|---------------------------------|
G|---------------------------------|
D|---------------------3--3--3--3--|
A|--5--6--5-5--6--5-5--3--3--3--3--| (Repeat 2x)
E|--5--6--5-5--6--5-5--3--3--3--3--|
E|---------------------3--3--3--3--|

[Riff E] 
(0:58)
TM
B|---------------------3-3-3-3-3-3--|
G|---------------------3-3-3-3-3-3--|
D|---------------------3-3-3-3-3-3--|
A|--5--6--5-5--6--5-5--3-3-3-3-3-3--| (Repeat 2x
E|--5--6--5-5--6--5-5--3-3-3-3-3-3--| with fast strumming on the last chord)
E|---------------------3-3-3-3-3-3--|

[Riff E] 
(1:05)
TM
B|---------------------3-3-3-3-3-3--|
G|---------------------3-3-3-3-3-3--|
D|---------------------3-3-3-3-3-3--|
A|--5--6--5-5--6--5-5--3-3-3-3-3-3--| (Repeat 4x
E|--5--6--5-5--6--5-5--3-3-3-3-3-3--| with fast strumming on the last chord
E|---------------------3-3-3-3-3-3--| Vocals start here “Cease Fire – Cease Fire”)

[Riff F] 
(1:17)
TM
B|--5--5--5-5-5--5--5-5-5--8---8---8---8---8---|
G|--7--7--7-7-7--7--7-7-7--10--10--10--10--10--|
D|--0--0--0-0-0--0--0-0-0--0---0---0---0---0---|
A|--5--5--5-5-5--5--5-5-5--8---8---8---8---8---|
E|---------------------------------------------|
E|---------------------------------------------|

E|--13--13--13-13-13--13--13-13-13--8---8---8---8---8---|
B|--15--15--15-15-15--15--15-15-15--10--10--10--10--10--|
G|--0---0---0--0--0---0---0--0--0---0---0---0---0---0---|
D|--13--13--13-13-13--13--13-13-13--8---8---8---8---8---|
A|------------------------------------------------------|
E|------------------------------------------------------|

[Riff G] 
(1:24)
TM
B|-------------------------------------|------------------------------------------|
G|-------------------------------------|------------------------------------------|
D|-------------------------------------|------------------------------------------|
A|--3/5--5--5-5--5-5-5--3--3--3--3--3--|--6/8--8--8-8--8-8-8--10--10--10--10--10--|
E|--3/5--5--5-5--5-5-5--3--3--3--3--3--|--6/8--8--8-8--8-8-8--10--10--10--10--10--|
E|----------------------3--3--3--3--3--|------------------------------------------|

[Riff E] 
(1:31)
TM
B|---------------------3-3-3-3-3-3--|
G|---------------------3-3-3-3-3-3--|
D|---------------------3-3-3-3-3-3--|
A|--5--6--5-5--6--5-5--3-3-3-3-3-3--| (Repeat 2x
E|--5--6--5-5--6--5-5--3-3-3-3-3-3--| with fast strumming on the last chord)
E|---------------------3-3-3-3-3-3--|

[Riff E] 
(1:38)
TM
B|---------------------3-3-3-3-3-3--|
G|---------------------3-3-3-3-3-3--|
D|---------------------3-3-3-3-3-3--|
A|--5--6--5-5--6--5-5--3-3-3-3-3-3--| (Repeat  8x
E|--5--6--5-5--6--5-5--3-3-3-3-3-3--| with fast strumming on the last chord
E|---------------------3-3-3-3-3-3--| Vocals here “Free Love – Free Love”)

 [Riff F]
(02:04)
TM
B|--5--5--5-5-5--5--5-5-5--8---8---8---8---8---|
G|--7--7--7-7-7--7--7-7-7--10--10--10--10--10--|
D|--0--0--0-0-0--0--0-0-0--0---0---0---0---0---|
A|--5--5--5-5-5--5--5-5-5--8---8---8---8---8---|
E|---------------------------------------------|
E|---------------------------------------------|

E|--13--13--13-13-13--13--13-13-13--8---8---8---8---8---|
B|--15--15--15-15-15--15--15-15-15--10--10--10--10--10--|
G|--0---0---0--0--0---0---0--0--0---0---0---0---0---0---|
D|--13--13--13-13-13--13--13-13-13--8---8---8---8---8---|
A|------------------------------------------------------|
E|------------------------------------------------------|

[Riff H] 
(2:09)
TM
B|-------------------------------------|-------------------------------------|
G|-------------------------------------|-------------------------------------|
D|-------------------------------------|-------------------------------------|
A|--3/5--5--5-5--5-5-5--3--3--3--3--3--|--6/8--8--8-8--8-8-8--6--6--6--6--6--|
E|--3/5--5--5-5--5-5-5--3--3--3--3--3--|--6/8--8--8-8--8-8-8--6--6--6--6--6--|
E|----------------------3--3--3--3--3--|----------------------6--6--6--6--6--|

[Riff F] 
(02:15)
TM
B|--5--5--5-5-5--5--5-5-5--8---8---8---8---8---|
G|--7--7--7-7-7--7--7-7-7--10--10--10--10--10--|
D|--0--0--0-0-0--0--0-0-0--0---0---0---0---0---|
A|--5--5--5-5-5--5--5-5-5--8---8---8---8---8---|
E|---------------------------------------------|
E|---------------------------------------------|

E|--13--13--13-13-13--13--13-13-13--8---8---8---8---8---|
B|--15--15--15-15-15--15--15-15-15--10--10--10--10--10--|
G|--0---0---0--0--0---0---0--0--0---0---0---0---0---0---|
D|--13--13--13-13-13--13--13-13-13--8---8---8---8---8---|
A|------------------------------------------------------|
E|------------------------------------------------------|

[Riff G] 
(2:21)
TM
B|-------------------------------------|------------------------------------------|
G|-------------------------------------|------------------------------------------|
D|-------------------------------------|------------------------------------------|
A|--3/5--5--5-5--5-5-5--3--3--3--3--3--|--6/8--8--8-8--8-8-8--10--10--10--10--10--|
E|--3/5--5--5-5--5-5-5--3--3--3--3--3--|--6/8--8--8-8--8-8-8--10--10--10--10--10--|
E|----------------------3--3--3--3--3--|------------------------------------------|

[Riff I] 
(2:28)
TM
B|--------------------------------------------------------------|
G|--------------------------------------------------------------|
D|--11-11-11--11--11--11-11-11--11--11--11--11--11--11--11--11--|
A|--11-11-11--11--11--11-11-11--11--11--11--11--11--11--11--11--| (Repeat 2x)
E|--11-11-11--11--11--11-11-11--11--11--11--11--11--11--11--11--|
E|--------------------------------------------------------------|

[Riff J] 
(2:34)
TM
B|--12-12-12--12--12--12-12-12--12--12--12--12--12--12--12--12--|
G|--12-12-12--12--12--12-12-12--12--12--12--12--12--12--12--12--|
D|--12-12-12--12--12--12-12-12--12--12--12--12--12--12--12--12--|
A|--12-12-12--12--12--12-12-12--12--12--12--12--12--12--12--12--| (Repeat 2x)
E|--12-12-12--12--12--12-12-12--12--12--12--12--12--12--12--12--|
E|--12-12-12--12--12--12-12-12--12--12--12--12--12--12--12--12--|

[Riff K] 
(2:41)
TM
B|-----------------|--------------------|
G|-----------------|--------------------|
D|-----------------|--------------------|
A|--6--6--6--6--6--|--5--5--5--5--5--5--| (Repeat 4x
E|--6--6--6--6--6--|--5--5--5--5--5--5--| with heavy distortion)
E|-----------------|--------------------|

[Riff L] 
(2:55)
TM
B|--5-5-5-5-5-5-----|
G|--0-0-0-0-0-0-----|
D|--5-5-5-5-5-5-----|
A|------------------| (Strum this chord rapidly)
E|------------------|
E|------------------|

[Riff M] 
(3:10)
TM
B|--5-5-5-5-5-5-----|
G|--0-0-0-0-0-0-----|
D|--5-5-5-5-5-5-----|
A|------------------|
E|------------------|
E|------------------| (Strum this chord rapidly)

JS
E|--6--5-----5--6--5-----5--6-6-6-6-6-6--|
B|--------6-----------6------------------|
G|---------------------------------------|
D|---------------------------------------|
A|---------------------------------------|
E|---------------------------------------|

[Riff A]
(3:25)
TM
B|-----------------------------------|
G|--7-7-7-7-7-7-7-7-7-7-7-7-7-7-7-7--|
D|-----------------------------------|
A|-----------------------------------|
E|-----------------------------------|
E|-----------------------------------|
(Repeat 8 times)

[Riff N] 
(3:51)
TM
B|--5--5--5-5-5--5--5-5-5--3--3--3--3--3--|--8---8---8--8--8---8---8--8--8---|
G|--7--7--7-7-7--7--7-7-7--5--5--5--5--5--|--10--10--10-10-10--10--10-10-10--|
D|--0--0--0-0-0--0--0-0-0--0--0--0--0--0--|--0---0---0--0--0---0---0--0--0---|
A|--5--5--5-5-5--5--5-5-5--3--3--3--3--3--|--8---8---8--8--8---8---8--8--8---|
E|----------------------------------------|----------------------------------|
E|----------------------------------------|----------------------------------|

E|--10--10--10--10--10---9---9---9---9---9--|--13--13--13-13-13--13--13-13-13--|
B|--12--12--12--12--12---11--11--11--11--11-|--15--15--15-15-15--15--15-15-15--|
G|--0---0---0---0---0----0---0---0---0---0--|--0---0---0--0--0---0---0--0--0---|
D|--10--10--10--10--10---9---9---9---9---9--|--13--13--13-13-13--13--13-13-13--|
A|------------------------------------------|----------------------------------|
E|------------------------------------------|----------------------------------|
(Repeat 2 times the whole section)

[Riff O] 
(4:27)
TM
B|------------------------------------------------|------------------------------------------------|
G|-------------------------------------12--13-13--|-------------------------------------12--13-13--|
D|-----------------------------12--13-------------|-----------------------------12--13-------------|
A|---------------------12--13---------------------|---------------------12--13---------------------|
E|----------12-12--13-----------------------------|----------12-12--13-----------------------------|
E|--12--13----------------------------------------|--12--13----------------------------------------|

JS
E|------------------------------------------------|------------------------------------------------|
B|------------------------------------------------|------------------------------------------------|
G|------------------------------------------------|------------------------------------------------|
D|---------------12-------------------10----------|---------------8--------------------5-----------|
A|------------------------------------------------|------------------------------------------------|
E|------------------------------------------------|------------------------------------------------|
(Repeat 2 x the whole section)

[Riff P] 
(4:41)
TM
B|------------------------------------------------|------------------------------------------------|
G|-------------------------------------12--13-13--|-------------------------------------12--13-13--|
D|-----------------------------12--13-------------|-----------------------------12--13-------------|
A|---------------------12--13---------------------|---------------------12--13---------------------|
E|----------12-12--13-----------------------------|----------12-12--13-----------------------------|
E|--12--13----------------------------------------|--12--13----------------------------------------|

JS
E|--12--12--12-12--12--12---10--10--10--10--10----|--8---8---8--8---8---8---5--5--5--5--5--|
B|--14--14--14-14--14--14---12--12--12--12--12----|--10--10--10-10--10--10--7--7--7--7--7--|
G|--0---0---0--0---0---0----0---0---0---0---0-----|--0---0---0--0---0---0---0--0--0--0--0--|
D|--12--12--12-12--12--12---10--10--10--10--10----|--8---8---8--8---8---8---5--5--5--5--5--|
A|------------------------------------------------|----------------------------------------|
E|------------------------------------------------|----------------------------------------|
9Repeat 2 x the whole section)

[Riff Q] 
(4:54)
TM
B|--------------13--------------13--|-----------8-----------8--|
G|----------------------------------|--------------------------|
D|----------------------------------|--------------------------|
A|------13--------------13----------|-----8-----------8--------|
E|----------------------------------|--------------------------|
E|--12------12------12------12------|--7-----7-----7-----7-----|

JS
E|----------------------------------|--------------------------|
B|-----7--8--10~--------------------|-----10--8--7~------------|
G|----------------------------------|--------------------------|
D|----------------------------------|--------------------------|
A|----------------------------------|--------------------------|
E|----------------------------------|--------------------------|

[Riff R] 
(5:02)
TM
B|--------------13--------------13--|-----------8-----------8--|
G|----------------------------------|--------------------------|
D|----------------------------------|--------------------------|
A|------13--------------13----------|-----8-----------8--------|
E|----------------------------------|--------------------------|
E|--12------12------12------12------|--7-----7-----7-----7-----|

JS
E|-----------------------------------|-----------------------------------|
B|-----7--8--10~---------------------|-----10--8--7--5--7~---------------|
G|-----------------------------------|-----------------------------------|
D|-----------------------------------|-----------------------------------|
A|-----------------------------------|-----------------------------------|
E|-----------------------------------|-----------------------------------|

[Riff S] 
(5:08)
TM
B|------------------------------------|
G|----------------------------7--8-8--|
D|----------------------7--8----------|
A|----------------7--8----------------| (Repeat 4x)
E|--------7-7--8----------------------|
E|--7--8------------------------------|

[Riff T] 
(5:21)
TM
B|---------------------------------|
G|---------------------------------|
D|---------------------------------|
A|--5--6--5-5--6--5-5--8--8--8--8--| (Repeat 4x)
E|--5--6--5-5--6--5-5--8--8--8--8--|
E|---------------------8--8--8--8--|

[Riff E] 
(5:35)
TM
B|---------------------3-3-3-3-3-3--|
G|---------------------3-3-3-3-3-3--|
D|---------------------3-3-3-3-3-3--|
A|--5--6--5-5--6--5-5--3-3-3-3-3-3--| (Repeat 8x
E|--5--6--5-5--6--5-5--3-3-3-3-3-3--| with fast strumming on the last chord
E|---------------------3-3-3-3-3-3--| Vocals here “Cease Fire - Cease Fire”)


*********************************** 

| / Slide-up 
| \ Slide-down 
| ~ Vibrato 
Outros vídeos desta música
    10 exibições
      • ½ Tom
      • A
      • Bb
      • B
      • C
      • Db
      • D
      • Eb
      • E
      • F
      • F#
      • G
      • Ab
    • Adicionar à lista

    Afinação da cifra

    Afinador online

      0 comentários

      Ver todos os comentários

      Entre para o Cifra Club PRO

      Tenha acesso a benefícios exclusivos no App e no Site

      • Chega de anúncios

      • Badges exclusivas

      • Mais recursos no app do Afinador

      • Atendimento Prioritário

      • Aumente seu limite de lista

      • Ajude a produzir mais conteúdo

      Cifra Club Pro

      Aproveite o Cifra Club com benefícios exclusivos e sem anúncios
      Cifra Club Pro
      Aproveite o Cifra Club com benefícios exclusivos e sem anúncios
      OK