Cifra Club

Bang

Tiago Iorc

Cifra: Principal (violão e guitarra)
tom: Eb (forma dos acordes no tom de D) Capotraste na 1ª casa
Intro :

E|---------------------------------------------|
B|---------------------------------------------|
G|---------------------------------------------|
D|----------0x----0----x----------0x---0-----x-|
A|-----------x---------x-----------x---------x-| 2x
E|-5h7p5h7---x--7------x-5h7p5-0---x-0-------x-|


1ª Parte:

     Bm7               Em
E|--------------------------------------|
B|-------3x-3-----x----0--0x-0-----x----|
G|--------x-------x--------x-------x----|
D|-------4x-4----4x----2--2x-2----2x----|
A|-0h2-2--x-2--2-2x-2------x-------x----|
E|---------------------0-0-x-0--0-0x-0--|

     Bm7            Em     F#m
E|--------------------------------|
B|-------3x-3-----x-0-0-x--2-2-x--|
G|--------x-------x-----x------x--|
D|-------4x-4----4x-2-2-x--4-4-x--|
A|-0h2-2--x-2--2-2x-----x------x--|
E|------------------0-0-x--2-2-x--|

     Bm7               Em
E|--------------------------------------|
B|-------3x-3-----x----0--0x-0-----x----|
G|--------x-------x--------x-------x----|
D|-------4x-4----4x----2--2x-2----2x----|
A|-0h2-2--x-2--2-2x-2------x-------x----|
E|---------------------0-0-x-0--0-0x-0--|

     Bm7               Em    F#m
E|------------------------------|
B|-------3x-3-----x----0--0x-2--|
G|--------x-------x--------x----|
D|-------4x-4----4x----2--2x-4--|
A|-0h2-2--x-2--2-2x-2------x----|
E|---------------------0-0-x-2--|


 Bm7
Bang dei meu 
                 Em
Tiro certo em você
                       Bm7
Deixa que eu faço acontecer
                           
Tem que ser assim 
         Em
Pra me acompanhar
      
Pra chegar
       Bm7
Então vem, não sou de 
                 Em
Fazer muita pressão 
                          Bm7
Mas não vou ficar na tua mão 
                         Em
Se você quiser não pode vacilar, demorar

Bm7
E pra te dominar
E7
  Virar tua cabeça
G7
  Eu vou continuar
     E7  F#7
Te provocando
Bm7
E pra escandalizar
E7
  Dar a volta por cima
G7                       E7
  Não vou parar, até te ver
   F#7
Pirando


 G7
Vem na maldade, com vontade
                  F#7
Chega encosta em mim

Hoje eu quero e você sabe
                Bm7
Que eu gosto assim
                   Em
Uh, uh, uh, uh, uh
                   Bm7
Uh, uh, uh, uh, uh
                   E7
Uh, uh, uh, uh, uh
                   Bm7
Uh, uh, uh, uh, uh
                   Em
Uh, uh, uh, uh, uh
                  Bm7
Uh, uh, uh, uh, uh
                   E7   F#
Uh, uh, uh, uh, uh                   
             


Bm7
Bang dei meu 
                 Em
Tiro certo em você
                       Bm7
Deixa que eu faço acontecer
                           
Tem que ser assim 
         Em
Pra me acompanhar
      
Pra chegar
       Bm7
Então vem, não sou de 
                 Em
Fazer muita pressão 
                          Bm7
Mas não vou ficar na tua mão 
                         Em
Se você quiser não pode vacilar, demorar


Bm7
E pra te dominar
E7
  Virar tua cabeça
G7
  Eu vou continuar
     E7  F#7
Te provocando
Bm7
E pra escandalizar
E7
  Dar a volta por cima
G7                       E7
  Não vou parar, até te ver
   F#7
Pirando

G7
Vem na maldade, com vontade
                  F#7
Chega encosta em mim

Hoje eu quero e você sabe
                Bm7
Que eu gosto assim
                   Em
Uh, uh, uh, uh, uh
                   Bm7
Uh, uh, uh, uh, uh
                   E7
Uh, uh, uh, uh, uh
                   Bm7
Uh, uh, uh, uh, uh
                   Em
Uh, uh, uh, uh, uh
                  Bm7
Uh, uh, uh, uh, uh
                   E7   F#
Uh, uh, uh, uh, uh                    

Bm7
E pra te dominar
E7
  Virar tua cabeça
G7
  Eu vou continuar
     E7  F#7
Te provocando
Bm7
E pra escandalizar
E7
  Dar a volta por cima
G7                       E7
  Não vou parar, até te ver
   F#7
Pirando

G7
Vem na maldade, com vontade
                  F#7
Chega encosta em mim

Hoje eu quero e você sabe
                Bm7
Que eu gosto assim
                   Em
Uh, uh, uh, uh, uh
                   Bm7
Uh, uh, uh, uh, uh
                   E7
Uh, uh, uh, uh, uh
                   Bm7
Uh, uh, uh, uh, uh
                   Em
Uh, uh, uh, uh, uh
                  Bm7
Uh, uh, uh, uh, uh
                   E7   F#
Uh, uh, uh, uh, uh
00:00 / 00:00
Outros vídeos desta música
Repetir
Outros vídeos desta música
Composição de Anitta
Colaboração e revisão:
  • Ruan Duarte
  • Augusto Schimieguel
  • Jullio Rosales
149.471 exibições
    • ½ Tom
    • A
    • Bb
    • B
    • C
    • Db
    • D
    • Eb
    • E
    • F
    • F#
    • G
    • Ab
  • Adicionar à lista

    0 comentários

    Ver todos os comentários

    Entre para oCifra Club PRO

    Tenha acesso a benefícios exclusivos no App e no Site

    • Chega de anúncios

    • Prioridade de compra em lançamentos

    • Mais recursos no app do Afinador

    • Atendimento Prioritário

    • Descontos nos produtos Cifra Club

    • Ajude a produzir mais conteúdo

    00:00 / 00:00

    Cifra Club Pro

    Aproveite o Cifra Club com benefícios exclusivos e sem anúncios
    Cifra Club Pro
    Aproveite o Cifra Club com benefícios exclusivos e sem anúncios
    OK