Cifra Club

Aprenda

Bilhetes

Tiago Iorc

Cifra: Principal (violão e guitarra)
Quer fazer aulas de música com a gente? Responda essas perguntas
e nos ajude nesse projeto! →
tom: E (forma dos acordes no tom de C) Capotraste na 4ª casa
[Primeira Parte]

[Riff]

   C
E|---3---3---3---3---3---3---3---3----------|
B|-5---5---5---5---5---5---5---5------------|
G|------------------------------------------|
D|------------------------------------------|
A|------------------------------------------|
E|------------------------------------------|

E|---3---3---3---3---3---3---3---3----------|
B|-5---5---5---5---5---5---5---5------------|
G|------------------------------------------|
D|------------------------------------------|
A|------------------------------------------|
E|------------------------------------------|
 
   Em
E|---3---3---3---3---3---3---3---3----------|
B|-5---5---5---5---5---5---5---5------------|
G|------------------------------------------|
D|------------------------------------------|
A|------------------------------------------|
E|------------------------------------------|

E|---3---3---3---3---3---3---3---3----------|
B|-5---5---5---5---5---5---5---5------------|
G|------------------------------------------|
D|------------------------------------------|
A|------------------------------------------|
E|------------------------------------------|

   F7M
E|---1---1---1---1---1---1---1---1----------|
B|-1---1---1---1---1---1---1---1------------|
G|------------------------------------------|
D|------------------------------------------|
A|------------------------------------------|
E|------------------------------------------|

E|---1---1---1---1---1---1---1---1----------|
B|-1---1---1---1---1---1---1---1------------|
G|------------------------------------------|
D|------------------------------------------|
A|------------------------------------------|
E|------------------------------------------|

   C
E|---3---3---3---3---3---3---3---3----------|
B|-5---5---5---5---5---5---5---5------------|
G|------------------------------------------|
D|------------------------------------------|
A|------------------------------------------|
E|------------------------------------------|

   G6
E|---3---3---3---3---3---3---3---3----------|
B|-3---3---3---3---3---3---3---3------------|
G|------------------------------------------|
D|------------------------------------------|
A|------------------------------------------|
E|------------------------------------------|

C
  Um tiro à queima roupa
            Em
Outra cicatriz

Senti a dor a pele
                     F7M
Por tudo que eu não fiz

O aperto aqui no peito
                   C
Me roubou o amanhecer
               G6
Eu dei meu melhor

C
  Tem dias que parece
                   Em
Que não vou conseguir

O medo me persegue
                 F7M
Me impede de sentir

Eu só quero amar direito
                     Am7
E ser tudo que eu puder
            G6
Seja o que for
              F7M
Venha o que vier

[Refrão]

C            Em
  E se caso for
Am7               Em
    Eu posso esperar
F7M             Am7
    A chuva passar
F7M             G6  C
    Pra tudo recomeçar

[Segunda Parte]

C
  Nenhuma dor é pouca
                Em
Nos erros aprendi
 
Na vida, sempre louca
            F7M
Amar é decidir

E cada nova escolha
                 C
É o que precisa ser
                 G6
Nem sempre o melhor

C
  Às vezes não tem outro jeito
              Em
O jeito é seguir

Lembrar que o que me fere
                  F7M
Também me faz sorrir

Escrevo em um bilhete
                Am7
Ame tudo que puder
            G6
Seja o que for
              F7M
Venha o que vier

[Refrão]

C            Em
  E se caso for
Am7               Em
    Eu posso esperar
F7M             Am7
    A chuva passar
F7M            G6  
    Pra recomeçar

Am7          Em
  E se caso for
Am7                 Em
    De ter que esperar
F7M             Am7
    A chuva se vai
F7M             G6  C  Am7
    Pra tudo recomeçar
 F7M   G6   C   
Tudo recomeçar

( Em  F7M  G6  C )

 Em   F7M   G6  C 
Tudo vai recomeçar
Em   F7M   G6  C 
Tudo vai recomeçar
 Em   F7M   G6  C 
Tudo vai recomeçar
 Em   F7M   G6  C 
Tudo vai recomeçar
Composição de Duca Leindecker / Tiago Iorc
Colaboração e revisão:
  • Gabriel Mauriz
  • Thiago Almeida
35.452 exibições
  • Simplificar cifra
    • ½ Tom
    • A
    • Bb
    • B
    • C
    • Db
    • D
    • Eb
    • E
    • F
    • F#
    • G
    • Ab
  • Adicionar à lista

    0 comentários

    Ver todos os comentários

    Conseguiu tocar?

    18 Tocaram 3 Ainda não

    Grave um vídeo tocando Bilhetes e nos envie!

    00:00 / 00:00
    Outros vídeos desta música
    Repetir Qualidade Automático
    Outros vídeos desta música
    00:00 / 00:00
    Automático

    Cifra Club Pro

    Aproveite o Cifra Club com benefícios exclusivos e sem anúncios
    Cifra Club Pro
    Aproveite o Cifra Club com benefícios exclusivos e sem anúncios
    OK