Cifra Club

Aprenda

Desconstrução

Tiago Iorc

Cifra: Completa (violão e guitarra)
Tom: A
[Intro]

Dm  Dm/C  Gm6/Bb  Gm7(13)  A7(13-)  A7(9-)

[Primeira Parte]

Quando se viu pela primeira vez

Na tela escura de seu celular

Saiu de cena pra poder entrar
                     Bb7M(11)
E aliviar a sua timidez

                            Gm7
Vestiu um ego que não satisfez
                         Dm
Dramatizou o vil da rotina
            Dm/C       Bb7M(11)
Como fosse dádiva divina
                           Gm7
Queria só um pouco de atenção
                             Dm7(11)/A
Mas encontrou a própria solidão

Ela era só uma menina

[Interlúdio 1]

Bb/D  D5  Bb6  F9  A7

[Segunda Parte]

Bb6
    Abrir os olhos não lhe satisfez
Gm7
    Entrou no escuro de seu celular
Dm11/A
       Correu pro espelho 

Pra se maquiar
                         Bb6
Pintou de dor a sua palidez

                        Gm7
E confiou sua primeira vez
                             Dm
No rastro de um pai que não via
               Dm/C         Bb6
Nem a própria mãe compreendia
                           Gm7
No passatempo de prazeres vãos
                              Dm11/A
Viu toda a graça escapar das mãos

E voltou pra casa tão vazia

[Interlúdio 2]

[Terceira Parte]

                          Gm7
Amanheceu tão logo se desfez
                              Em7(5-)
Se abriu nos olhos de um celular
                      D/F#
Aliviou a tela ao entrar
          A7/G            Bb6
Tirou de cena toda a timidez

                         Gm7
Alimentou as redes de nudez
                         D
Fantasiou o brio da rotina
            C9         Gm/Bb
Fez de sua pele sua sina
                            Gm7
Se estilhaçou em cacos virtuais
                            A7
Nas aparências todos tão iguais

Singularidades em ruína

[Interlúdio 3]

Bb6     Gm7
Ah, Ah, Ah
D    C9    Gm/Bb
  Ah ah ah ah ah
Gm7
Ah

[Quarta Parte]

Entrou no escuro de sua palidez

Estilhaçou seu corpo celular

Saiu de cena pra se aliviar
                           Bb6
Vestiu o drama uma última vez

                         Gm7
Se liquidou em sua liquidez
                        Dm
Viralizou no cio da ruína
         Dm/C       Bb6
Ela era só uma menina
                           Gm7
Ninguém notou a sua depressão
                             A7
Seguiu o bando a deslizar a mão

Para assegurar uma curtida

[Final]

Dm    Dm/C  Bb7M(11)  
Ah ah ah ah ah ah ah 
Gm7         Dm11/A   A7(13-)
Ah ah ah ah ah ah ah ah 
Bb7M(11)
Ah ah ah ah 
Gm7
Ah ah ah ah 
Dm    Dm/C  Bb7M(11)
Ah ah ah ah ah.. ah
Gm7        A7(13-)
Ah.. ah ah ah.. ah
Dm  Dm/C  Bb7M(11)  Dm
Ah


[Intro]

Parte 1 de 3

   Dm      Dm/C   Gm6/Bb
E|-1-----1-1-----1--0-----0----------------|
B|-3---3---3---3----3---3---3--------------|
G|-2-2-----2-2------0-0-------0------------|
D|-----------------------------------------|
A|---------3--------1----------------------|
E|-0---------------------------------------|

Parte 2 de 3

   Gm6/Bb          Gm7
E|-------0------------------0---------------|
B|-----3------------------6---6---6---------|
G|---0-------0---0------3-------3-----------|
D|--------------------0---------------------|
A|-1-------1---0----------------------------|
E|------------------5-----------------------|

Parte 3 de 3
         
   Gm7             A7(13-)           A7(9-)           
E|---------0----------------0---------------|
B|-------6---6---6--------6---6-------10----|
G|-----3-------3--------0-------0-----0-----|
D|---0----------------5-----------5/8-8-----|
A|------------------0-----------------------|
E|-5----------------------------------------|

[Interlúdio 1]

Parte 1 de 4 

   Bb/D    D5
E|-6-------5--------------------------------|
B|-3-------3--------------------------------|
G|-3-------2--------------------------------|
D|------------------------------------------|
A|------------------------------------------|
E|-0-0-0-0---0-0-0--0-0-0-0-0-0-0-0---------|

Parte 2 de 4

  Bb6
E|-0----------------------------------------|
B|-3-------3--------------------------------|
G|-0-------0--------------------------------|
D|---------3--------------------------------|
A|-1-1-1-1---1-1-1--1-1-1-1-1-1-1-1---------|
E|------------------------------------------|

Parte 3 de 4

  F9
E|---------3--------------------------------|
B|-1-------1--------------------------------|
G|-0-------0--------------------------------|
D|-3----------------------------------------|
A|------------------------------------------|
E|-3-3-3-3---3-3-3--3-3-3-3-3-3-3-3---------|

Parte 4 de 4
   
   A7
E|------------------------------------------|
B|------------------------------------------|
G|-0-------0--------------------------------|
D|-5-------3--------------------------------|
A|-0-0-0-0---0-0-0--0-0-0-0-0-0-0-0---------|
E|------------------------------------------|

[Segunda Parte]

Parte 1 de 10

   Bb6
E|------------------------------------------|
B|-3-----3----------3-----3-----------------|
G|-0-----0----------0-----0-----------------|
D|-3-----3----------3-----3-----------------|
A|-1-1-1-1-1-1-1-1--1-1-1-1-1-1-1-1---------|
E|------------------------------------------|

Parte 2 de 10

   Gm7
E|------------------------------------------|
B|-6-----6----------6-----6-----------------|
G|-3-----3----------3-----3-----------------|
D|-0-----0----------0-----0-----------------|
A|------------------------------------------|
E|-5-5-5-5-5-5-5-5--5-5-5-5-5-5-5-5---------|

Parte 3 de 10 (2x)

  Dm11/A
E|------------------------------------------|
B|-3-----3----------3-----3-----------------|
G|-0-----0----------0-----0-----------------|
D|-3-----3----------3-----3-----------------|
A|-0-0-0-0-0-0-0-0--0-0-0-0-0-0-0-0---------|
E|------------------------------------------|

Parte 4 de 10

   Bb6
E|------------------------------------------|
B|-3-----3----------3-----3-----------------|
G|-0-----0----------0-----0-----------------|
D|-3-----3----------3-----3-----------------|
A|-1-1-1-1-1-1-1-1--1-1-1-1-1-1-1-1---------|
E|------------------------------------------|

Parte 5 de 10

   Gm7
E|------------------------------------------|
B|-6-----6----------6-----6-----------------|
G|-3-----3----------3-----3-----------------|
D|-0-----0----------0-----0-----------------|
A|------------------------------------------|
E|-5-5-5-5-5-5-5-5| -5-5-5-5-5-5-5-5----------|

Parte 6 de 10

   Dm
E|-1-----1----------1-----1-----------------|
B|-3-----3----------3-----3-----------------|
G|-2-----2----------2-----2-----------------|
D|------------------------------------------|
A|------------------3-3-3-3-3-3-3-3---------|
E|-0-0-0-0-0-0-0-0--------------------------|


Parte 7 de 10

   Bb6
E|------------------------------------------|
B|-3-----3----------3-----3-----------------|
G|-0-----0----------0-----0-----------------|
D|-3-----3----------3-----3-----------------|
A|-1-1-1-1-1-1-1-1--1-1-1-1-1-1-1-1---------|
E|------------------------------------------|

Parte 8 de 10

   Gm7
E|------------------------------------------|
B|-6-----6----------6-----6-----------------|
G|-3-----3----------3-----3-----------------|
D|-0-----0----------0-----0-----------------|
A|------------------------------------------|
E|-5-5-5-5-5-5-5-5| -5-5-5-5-5-5-5-5----------|


Parte 9 de 10

  Dm11/A
E|------------------------------------------|
B|-3-----3----------------------------------|
G|-0-----0----------------------------------|
D|-3-----3----------------------------------|
A|-0-0-0-0-0-0-0-0--------------------------|
E|------------------------------------------|

[Interlúdio 2]

E|------------------------------------------|
B|------------------------------------------|
G|-------2--------0---3-2-------------------|
D|-0-2-3---2-0------3-----2-3---------------|
A|-------------4----------------------------|
E|------------------------------------------|

[Final]

Parte 1 de 12

   Dm         Dm/C
E|-1-1---1-1----1---1-1---------------------|
B|-3-3---3-3----3---3-3---------------------|
G|-2-2---2-2----2---2-2---------------------|
D|-0---0------------------------------------|
A|------------3---3-------------------------|
E|------------------------------------------|

Parte 2 de 12

  Bb7M(11)
E|---0---0-0----0---0-0---------------------|
B|---3---3-3----3---3-3---------------------|
G|---2---2-2----2---2-2---------------------|
D|------------------------------------------|
A|-1---1------1---1-------------------------|
E|------------------------------------------|


Parte 3 de 12

   Gm7
E|------------------------------------------|
B|---6---6-6----6---6-6---------------------|
G|---3---3-3----3---3-3---------------------|
D|---0---0-0----0---0-0---------------------|
A|------------------------------------------|
E|-5---5------5---5-------------------------|



Parte 4 de 12

   Dm11/A     A7(13-)
E|------------------------------------------|
B|---3---3-3----6---6-6---------------------|
G|---0---0-0----0---0-0---------------------|
D|---3---3-3----5---5-5---------------------|
A|-0---0------0---0-------------------------|
E|------------------------------------------|

Parte 5 de 12

  Bb7M(11)
E|---0---0-0----0---0-0---------------------|
B|---3---3-3----3---3-3---------------------|
G|---2---2-2----2---2-2---------------------|
D|------------------------------------------|
A|-1---1------1---1-------------------------|
E|------------------------------------------|

Parte 6 de 12 

   Gm7
E|------------------------------------------|
B|---6---6-6----6---6-6---------------------|
G|---3---3-3----3---3-3---------------------|
D|---0---0-0----0---0-0---------------------|
A|------------------------------------------|
E|-5---5------5---5-------------------------|

Parte 7 de 12

   Dm         Dm/C
E|-1-1---1-1----1---1-1---------------------|
B|-3-3---3-3----3---3-3---------------------|
G|-2-2---2-2----2---2-2---------------------|
D|-0---0------------------------------------|
A|------------3---3-------------------------|
E|------------------------------------------|

Parte 8 de 12

  Bb7M(11)
E|---0---0-0----0---0-0---------------------|
B|---3---3-3----3---3-3---------------------|
G|---2---2-2----2---2-2---------------------|
D|------------------------------------------|
A|-1---1------1---1-------------------------|
E|------------------------------------------|

Parte 9 de 12

   Gm7
E|------------------------------------------|
B|---6---6-6----6---6-6---------------------|
G|---3---3-3----3---3-3---------------------|
D|---0---0-0----0---0-0---------------------|
A|------------------------------------------|
E|-5---5------5---5-------------------------|

Parte 10 de 12

   A7(13-)
E|------------------------------------------|
B|---6---6-6----6---6-----------------------|
G|---0---0-0----0---0-----------------------|
D|---5---5-5----5---5-----------------------|
A|-0---0------0---0-------------------------|
E|------------------------------------------|

Parte 11 de 12

   Dm         Dm/C
E|-1-1---1-1----1---1-----------------------|
B|-3-3---3-3----3---3-----------------------|
G|-2-2---2-2----2---2-----------------------|
D|-0---0------------------------------------|
A|------------3---3---3---------------------|
E|------------------------------------------|

Parte 12 de 12

   Bb7M(11)             Dm
E|-0-0---0-0---0---0----1-------------------|
B|-3-3---3-3---3---3----3-------------------|
G|-2-2---2-2---2---2----2-------------------|
D|----------------------0-------------------|
A|-1---1-----1---1---0--0-------------------|
E|----------------------0-------------------|
Composição de Tiago Iorc
Colaboração e revisão:
  • Leandro Sandim
3.018 exibições
    • ½ Tom
    • A
    • Bb
    • B
    • C
    • Db
    • D
    • Eb
    • E
    • F
    • F#
    • G
    • Ab
  • Adicionar à lista

    0 comentários

    Mostrar mais comentários

    Conseguiu tocar?

    1 Tocaram 1 Ainda não

    Grave um vídeo tocando Desconstrução e mande pra gente!

    00:00 / 00:00
    outros vídeos desta música
    repetir qualidade Automático
    Outros vídeos desta música
    00:00 / 00:00
    Automático
    Capítulos
    • Tocando a Música
    • Apresentação / Equipamentos
    • Dicas Iniciais
    • Afinação | Capotraste
    • Acordes Introdução
    • Tocando Introdução
    • Ensinando Introdução - Lenta
    • Ensinando Introdução - Parte 1
    • Ensinando Introdução - Parte 2
    • Ensinando Introdução - Parte 3
    • Dicas e Percussão Primeira Parte
    • Acordes Primeira Parte
    • Tocando Primeira Parte
    • Dicas Interlúdio 1
    • Acordes Interlúdio 1
    • Tocando Interlúdio 1
    • Ensinando Interlúdio 1 - Lento
    • Ensinando Interlúdio 1 - Parte 1
    • Ensinando Interlúdio 1 - Parte 2
    • Ensinando Interlúdio 1 - Parte 3
    • Ensinando Interlúdio 1 - Parte 4
    • Dicas Segunda Parte
    • Tocando Segunda Parte
    • Ensinando Segunda Parte - Lento
    • Ensinando Segunda Parte - Padrão
    • Dicas Interlúdio 2
    • Tocando Interlúdio 2
    • Ensinando Interlúdio 2
    • Acordes Terceira Parte e Interlúdio 3
    • Tocando Terceira Parte e Interlúdio 3
    • Dicas Quarta Parte
    • Tocando Quarta Parte
    • Dicas Final da Música
    • Tocando Final da Música
    • Ensinando Final - Lento
    • Ensinando Final - Padrão
    • Ensinando Final - Padrão Variação
    • Encerramento
    OK