Cifra Club

How Much It Hurts

Tiago Iorc

Cifra: Principal (violão e guitarra)
tom: D
(intro and verse)
E |-------------------------------------------------------------------------------------
B |--------7-------------7-------------7-------------7-------------7--------------------
G |------0---0---------0---0---------0---0---------0---0---------0---0-------------------
D |----7-------7-----7-------7-----7-------7-----7-------7-----7-------7----------------
A |--5-------------5-------------0-------------0----------------------------------------
E |----------------------------------------------------------7--------------------------
                                 first time           second time - end of the verse
E |-----------------------------|--------------------|------------------------------------
B |--------7-------------7------|-------7------------|------------------------------------
G |------0---0---------0---0----|-----0---0----------|------9-----------------------------
D |----7-------7-----7-------7--|---7-------7--------|------------------------------------
A |----------------0------------|-0------------------|------------------------------------
E |--7--------------------------|--------------------|------------------------------------

(verse)

Speak, speak your mind
You're always telling me i need to open mine
And wait, wait your turn
Then shut me out cause you've got nothing left to
learn

(pre-chorus)
        G                     A                Bm7/11           A
Oh, you say there's nothing wrong with being proud
E |-------------------------------------------------------------------------------
B |------------3---------------------5---------------7-------------7--------------
G |----------4---4-----------------6---6-----------0---0---------0---0------------
D |--------5-------5-------------7-------7-------7-------7-----7-------7----------
A |------5---------------------7-----------------------------0--------------------
E |--------------------------------------------7----------------------------------
       G              A            Bm7/11            A
So tell me what you love and say it loud
E |-------------------------------------------------------------------------------
B |------------3---------------------5---------------7----------------------------
G |----------4---4-----------------6---6-----------0---0--------------------------
D |--------5-------5-------------7-------7-------7-------7------------------------
A |------5---------------------7-----------------------------0--------------------
E |--------------------------------------------7----------------------------------
      G                  A              Bm7/11          A
Now here's the dose that you've been dishing out
E |-------------------------------------------------------------------------------
B |------------3---------------------5---------------7----------------------------
G |----------4---4-----------------6---6-----------0---0--------------------------
D |--------5-------5-------------7-------7-------7-------7------------------------
A |------5---------------------7-----------------------------0--------------------
E |--------------------------------------------7----------------------------------

If you're listening this is how much it hurts
If you're listening this is how much it hurts
E |-------------------------------------------------------------------------------------
B |--------7-------------7-------------7-------------7-------------7--------------------
G |------0---0---------0---0---------0---0---------0---0---------0---0-------------------
D |----7-------7-----7-------7-----7-------7-----7-------7-----7-------7----------------
A |--5-------------5-------------0-------------0----------------------------------------
E |----------------------------------------------------------7--------------------------

E |---------------|---------------------------------------
B |--------7------|-------7-------------------------------
G |------0---0----|-----0---0---------9-------------------
D |----7-------7--|---7-------7---------------------------
A |---------------|-0-------------------------------------
E |--7------------|---------------------------------------

(verse)
Oh, i'm wrong
I'm wrong again
But not because of where i stand but where i've been
And it burns
Oh, you know it burns like hell
To know there's nothing i can do but wish you well

     G                    A                Bm7/11
You say there's nothing wrong with being proud
     G                 A              Bm7/11
So tell me what you love and say it loud
     G                 A                  Bm7/11
I've been good enough to stay and hear you out
            D     D/C#    D9         D9/B       D9/E
But you're wrong              you're never wrong

       G                     A               Bm7/11
Oh, you say there's nothing wrong with being proud
       G                 A               Bm7/11
Ya, so tell me what you love and say it loud
       G                A                 Bm7/11
I've been giving you the benefit of the doubt

If you're listening this is how much it hurts(4x)
E |-------------------------------------------------------------------------------------
B |--------7-------------7-------------7-------------7-------------7--------------------
G |------0---0---------0---0---------0---0---------0---0---------0---0-------------------
D |----7-------7-----7-------7-----7-------7-----7-------7-----7-------7----------------
A |--5-------------5-------------0-------------0----------------------------------------
E |----------------------------------------------------------7--------------------------
                                 first time                 second time - end of the song
E |------------------------------|-------------------      |------------------------------------
B |--------7-------------7-------|------7------------      |------------------------------------
G |------0---0---------0---0-----|----0---0----------      |------9-----------------------------
D |----7-------7-----7-------7---|--7-------7-------- 2x   |------------------------------------
A |----------------0-------------|0------------------      |------------------------------------
E |--7---------------------------|-------------------      |------------------------------------
00:00 / 00:00
Outros vídeos desta música
Repetir
Outros vídeos desta música
Compositor não encontrado.
Colaboração e revisão:
  • MAZINHA
4.329 exibições
    • ½ Tom
    • A
    • Bb
    • B
    • C
    • Db
    • D
    • Eb
    • E
    • F
    • F#
    • G
    • Ab
  • Adicionar à lista

    0 comentários

    Ver todos os comentários

    Conseguiu tocar?

    0 Tocaram 0 Ainda não

    Grave um vídeo tocando How Much It Hurts e nos envie!

    Entre para oCifra Club PRO

    Tenha acesso a benefícios exclusivos no App e no Site

    • Chega de anúncios

    • Prioridade de compra em lançamentos

    • Mais recursos no app do Afinador

    • Atendimento Prioritário

    • Descontos nos produtos Cifra Club

    • Ajude a produzir mais conteúdo

    00:00 / 00:00

    Cifra Club Pro

    Aproveite o Cifra Club com benefícios exclusivos e sem anúncios
    Cifra Club Pro
    Aproveite o Cifra Club com benefícios exclusivos e sem anúncios
    OK