Cifra Club

Laços

Tiago Iorc

Cifra: Principal (violão e guitarra)
tom: D
[Intro] D  F#m
        D  F#m

   D                                      F#m
E|----------0h2------------------2--------------------|
B|-2h3-------------3-----3----------5p3p2-------2-----|
G|-------------------2-----2----------------2---------|
D|-------4-------------4-----4----------------4-----4-|
A|-----5--------5-------------------------------------|
E|----------------------------------------2-----------|

   D                                      F#m
E|----------0h2------------------2--------------------|
B|-2h3-------------3-----3----------5p3p2-------2-----|
G|-------------------2-----2----------------2---------|
D|-------4-------------4-----4----------------4-----4-|
A|-----5--------5-------------------------------------|
E|----------------------------------------2-----------|

[Primeira Parte]

 D                   F#m
Cada centímetro de chão
                 D
Pedaço da imensidão
                 F#m
Poeira interestelar
        G6   G9
Quanta sorte
     A4
É poder chegar
       G6  G9
Nessa vida
       A4
Com você

( D  F#m )
( D  F#m )

D                        F#m
 Todo caminho trilha um sol
                        D
Dentro do olhar de cada um
                       F#m
Se conhecer pra se gostar
          G6   G9
Ser mais forte
       A4
Por acreditar
        G6 G9
Na alegria 
      A4
De viver

[Solo] G  Em  Bm7  A 
       G  Em  Bm7  A 

                          G
E|------------------------------------------|
B|------------------------10---7p5-7--------|
G|---------4/6/7-7/9/11---------------------|
D|---0h4/5----------------------------------|
A|-0----------------------------------------|
E|------------------------------------------|

    Em            Bm7                    A
E|------------------------------------------|
B|--10--7p5-7-----7------------------5/2-2--|
G|------------------4---7p4-7----4-7--------|
D|------------------------------------------|
A|------------------------------------------|
E|------------------------------------------|

                          G
E|------------------------------------------|
B|------------------------10---7p5-7--------|
G|---------4/6/7-7/9/11---------------------|
D|---0h4/5----------------------------------|
A|-0----------------------------------------|
E|------------------------------------------|

    Em            Bm7                    A
E|------------------------------------------|
B|--10--7p5-7-----7------------------5/2-2--|
G|------------------4---7p4-7----4-7--------|
D|------------------------------------------|
A|------------------------------------------|
E|------------------------------------------|

[Segunda Parte]

D                     F#m 
 Cada suspiro é gratidão
                      Bm7
De ver entrelaçar as mãos 
                        A
Que juntas podem muito mais
        G6   G9
Ter um norte
       A4        A
Pra poder sonhar
        G6   G9
Ser a brisa
      A4        
Vendaval pra transformar

D 
 Gota de lágrima
     D9/C#
Trovão que vem do mar
       Bm7
Revolução
                      A   A4  A
E a chance pra recomeçar

         G6    G9
Quero a sorte
     A4       A
De reaprender
      G6    G9
Essa vida 
        A4
Ser a chuva que quer chover 

[Solo] G  Em  Bm7  A 
       G  Em  Bm7  A
       G  Fm7  Am7  G6  

                          G
E|------------------------------------------|
B|------------------------10---7p5-7--------|
G|---------4/6/7-7/9/11---------------------|
D|---0h4/5----------------------------------|
A|-0----------------------------------------|
E|------------------------------------------|

    Em            Bm7                    A
E|------------------------------------------|
B|--10--7p5-7-----7------------------5/2-2--|
G|------------------4---7p4-7----4-7--------|
D|------------------------------------------|
A|------------------------------------------|
E|------------------------------------------|

                          G
E|------------------------------------------|
B|------------------------10---7p5-7--------|
G|---------4/6/7-7/9/11---------------------|
D|---0h4/5----------------------------------|
A|-0----------------------------------------|
E|------------------------------------------|

    Em            Bm7                    A
E|------------------------------------------|
B|--10--7p5-7-----7------------------5/2-2--|
G|------------------4---7p4-7----4-7--------|
D|------------------------------------------|
A|------------------------------------------|
E|------------------------------------------|
00:00 / 00:00
Outros vídeos desta música
Repetir
Outros vídeos desta música
Composição de Duca Leindecker / Tiago Iorc
Colaboração e revisão:
  • Getúlio Vasconcelos
28.008 exibições
    • ½ Tom
    • A
    • Bb
    • B
    • C
    • Db
    • D
    • Eb
    • E
    • F
    • F#
    • G
    • Ab
  • Adicionar à lista

    0 comentários

    Ver todos os comentários

    Conseguiu tocar?

    9 Tocaram 3 Ainda não

    Grave um vídeo tocando Laços e nos envie!

    Entre para oCifra Club PRO

    Tenha acesso a benefícios exclusivos no App e no Site

    • Chega de anúncios

    • Prioridade de compra em lançamentos

    • Mais recursos no app do Afinador

    • Atendimento Prioritário

    • Descontos nos produtos Cifra Club

    • Ajude a produzir mais conteúdo

    00:00 / 00:00

    Cifra Club Pro

    Aproveite o Cifra Club com benefícios exclusivos e sem anúncios
    Cifra Club Pro
    Aproveite o Cifra Club com benefícios exclusivos e sem anúncios
    OK