Cifra Club

Mulher

Tiago Iorc

Cifra: Principal (violão e guitarra)
tom: Bb (forma dos acordes no tom de C) Afinação: D G C F A D
   E/A                 E9/F#
E|-------------------------------------------------|
B|-------------------------------------------------|
G|------1-----------1-----------1-----------1------|
D|----2-----2-----2-----2-----2-----2-----2-----2--|
A|0-0-----0---0-0-----0----------------------------|
E|------------------------2-2-----2---2-2-----2----|

   E                      E7
E|-------------------------------------------------|
B|-------------------------------------------------|
G|------1-----------1------------------------------|
D|----------------------0-------0-----------0------|
A|----2-----2-----2-----------2-----2-----2-----2--|
E|0-0-----0---0-0-----0---0-0-----0---0-0-----0----|

 CM7
Mulher
 Am9/C
Sabe com toda a certeza
                 G     G7
Quando não sabe o quer
 CM7
Mulher
 Am9/C
Sabe que com jeitinho
                 G        G7
Pode ter o que quiser

   E/A                 E9/F#           A5(9)
E|-------------------------------------------------|
B|0------------------------------------------------|
G|------1-----------1-----------4-----------4------|
D|----2-----2-----2-----2-----2-----2-----2-----2--|
A|0-0-----0---------------0-0-----0---0-0-----0----|
E|------------2-2-----0----------------------------|

   E                     E/A
E|--------------------------------------|
B|-----------------------------------0--|
G|------1-----------1----------1-----1--|
D|---------------------------2-----2-2--|
A|----2-----2-----2----2-0-0----0----0--|
E|0-0-----0---0-0----0------------------|

pré-refrão:
    Bm7        Em7       Am7
Vai ver a graça é não entender
                     C                 Bm7
Exatamente o que se passa dentro de você
             Em7
Que se disfarça 
Am7                 C 
No teu olhar que tudo vê

   E                      E7
E|-------------------------------------------------|
B|-------------------------------------------------|
G|------1-----------1------------------------------|
D|----------------------0-------0-----------0------|
A|----2-----2-----2-----------2-----2-----2-----2--|
E|0-0-----0---0-0-----0---0-0-----0---0-0-----0----|

   E/A                     E
E|-------------------------------------------------|
B|-------------------------------------------------|
G|------1-----------1-----------1-----------1------|
D|----2-----2-----2-----2--------------------------|
A|0-0-----0---0-0-----0-------2-----2-----2-----2--|
E|------------------------0-0-----0---0-0-----0----|

G
Não te entendo
Bm7
Nem de longe
Am7
Mas te quero
C              G
Te quero bem perto
G
Não te entendo
Bm7       Em7
Nem de perto
Am7
Mas te quero
C             G
Te quero e te quero

   E/A                 E9/F#
E|-------------------------------------------------|
B|-------------------------------------------------|
G|------1-----------1-----------1-----------1------|
D|----2-----2-----2-----2-----2-----2-----2-----2--|
A|0-0-----0---0-0-----0----------------------------|
E|------------------------2-2-----2---2-2-----2----|

    E                      E7
E|-------------------------------------------------|
B|-------------------------------------------------|
G|------1-----------1------------------------------|
D|----------------------0-------0-----------0------|
A|----2-----2-----2-----------2-----2-----2-----2--|
E|0-0-----0---0-0-----0---0-0-----0---0-0-----0----|

  CM7
Mulher
Am9/C
Foge de quem corre atrás
                         G      G7
E corre atrás de quem não quer
  CM7
Mulher
Am9/C
Ama até mesmo quando
                   G    G7
Já parece que não é amor

   E/A                 E9/F#           A5(9)
E|-------------------------------------------------|
B|-------------------------------------------------|
G|------1-----------1-----------4-----------4------|
D|----2-----2-----2-----2-----2-----2-----2-----2--|
A|0-0-----0---------------0-0-----0---0-0-----0----|
E|------------2-2-----0----------------------------|

   E                     E/A
E|--------------------------------------|
B|-----------------------------------0--|
G|------1-----------1----------1-----1--|
D|---------------------------2-----2-2--|
A|----2-----2-----2----2-0-0----0----0--|
E|0-0-----0---0-0----0------------------|

    Bm7        Em7    Am7
Vai ver a graça é perceber
                      C                  Bm7
Que você sempre sabe tudo, sem eu te dizer
    Em7
O que quer que eu faça
Am7                       C 
Não previne o que pode acontecer

   E                      E7
E|-------------------------------------------------|
B|-------------------------------------------------|
G|------1-----------1------------------------------|
D|----------------------0-------0-----------0------|
A|----2-----2-----2-----------2-----2-----2-----2--|
E|0-0-----0---0-0-----0---0-0-----0---0-0-----0----|

   E/A                     E
E|-------------------------------------------------|
B|-------------------------------------------------|
G|------1-----------1-----------1-----------1------|
D|----2-----2-----2-----2--------------------------|
A|0-0-----0---0-0-----0-------2-----2-----2-----2--|
E|------------------------0-0-----0---0-0-----0----|

G
Não te entendo
Bm7     Em7
Nem de longe
Am7
Mas te quero
C             G
Te quero bem perto
G
Não te entendo
Bm7       Em7
Nem de perto
Am7
Mas te quero
 C             G
Te quero e te quero

   C
E|--------------------------------------------------|
B|------1h0---------0p1----------1-----------1------|
G|--------------------------------------------------|
D|----2-----2-----2------2-----2-----2-----2-----2--|
A|0-0-----0---0-0------0---0-0-----0---0-0-----0----|
E|--------------------------------------------------|

   E       Eb          Db          C
E|-----------------------------------|
B|------5-----------4-----------2-1--|
G|--------------------------------0--|
D|----6-----6-----5-----5-----3---2--|
A|7-7-----7---6-6-----6---4-4-----3--|
E|-----------------------------------|     

   E/A                     B4/F#
E|-------------------------------------------------|
B|-------------------------------------------------|
G|------1-----------1-----------4-----------4------|
D|----2-----2-----0-----2-----2-----2-----2-----2--|
A|0-0-----0---0-0-----0----------------------------|
E|------------------------2-2-----2---2-2-----2----|

   B           B4         B           B7
E|--------------------------------------|
B|------4/5--------5\4---------4-----4--|
G|-----------------------------------2--|
D|----4-----4-----4----4------4----4-4--|
A|2-2-----2---2-2----2---2-2-----2---2--|
E|--------------------------------------|

       Eb
Teu relógio marca outra hora
              
Tua hora nem sempre é agora
                          G
Teu agora muitas vezes demora
Eb         Db
 Mas eu te espero 
       E/A
Eu não vejo o tempo passar
       B4/F#                  B   B4   B  B7
Eu não vejo a hora de te encontrar

G
Não te entendo
Bm7     Em7
Nem de longe
Am7
Mas te quero
C             G
Te quero bem perto
G
Não te entendo
Bm7    Em7
Nem de perto
Am7
Mas te quero
C             G
Te quero e te quero

G
Não te entendo
Bm7    Em7
Nem de longe
Am7
Mas te quero
C              G
Te quero bem perto
G
Não te entendo
Bm7    Em7
Nem de perto
Am7
Mas te quero
Am7  C          G
Te quero e te quero
00:00 / 00:00
Outros vídeos desta música
Repetir
Outros vídeos desta música
Composição de Tiago Iorc
Colaboração e revisão:
51.694 exibições
    • ½ Tom
    • A
    • Bb
    • B
    • C
    • Db
    • D
    • Eb
    • E
    • F
    • F#
    • G
    • Ab
  • Adicionar à lista

    0 comentários

    Ver todos os comentários

    Conseguiu tocar?

    5 Tocaram 9 Ainda não

    Grave um vídeo tocando Mulher e nos envie!

    Entre para oCifra Club PRO

    Tenha acesso a benefícios exclusivos no App e no Site

    • Chega de anúncios

    • Prioridade de compra em lançamentos

    • Mais recursos no app do Afinador

    • Atendimento Prioritário

    • Descontos nos produtos Cifra Club

    • Ajude a produzir mais conteúdo

    00:00 / 00:00

    Cifra Club Pro

    Aproveite o Cifra Club com benefícios exclusivos e sem anúncios
    Cifra Club Pro
    Aproveite o Cifra Club com benefícios exclusivos e sem anúncios
    OK