Cifra Club

Starboy

Tiago Iorc

Cifra: Principal (violão e guitarra)
tom: Ab (forma dos acordes no tom de G) Capotraste na 1ª casa
[Intro] Dm6  Am7  Bb7M  C7M
        Dm6  Am7  Bb7M  C7M

(Parte 1 de 2)
  Dm6
E|-----------------------------|
B|-------x-x---x-x-x-x-x-x-x-x-|
G|-------x-x-2-x-x-x-x-x-x-x-x-|
D|-3-3-3-x-x---x-x-x-x-x-x-x-x-|
A|-5-5-5-x-x---x-x-x-x-x-x-x-x-|
E|-----------------------------|
   ↓ ↓ ↓  ↑ ↓ ↑  ↓ ↑ ↓ ↑ ↓ ↑ ↓ ↑

  Am7
E|-----------------------------|
B|-------------x-x-x-x-x-x-x---|
G|-------x-x---x-x-x-x-x-x-x---|
D|---2-3-x-x-2-x-x-x-x-x-x-x-3-|
A|-3-3-3-x-x---x-x-x-x-x-x-x---|
E|-5-5-5-x-x-------------------|
   ↓ ↓ ↓  ↑ ↓ ↑ ↓ ↑ ↓ ↑ ↓ ↑ ↓ ↑

 Bb7M
E|-----------------------------|
B|-------x-x---x-x-x-x-x-x-x---|
G|-------x-x---x-x-x-x-x-x-x-2-|
D|-3-3-0-x-x-3-x-x-x-x-x-x-x---|
A|-1-1-1-x-x---x-x-x-x-x-x-x---|
E|-----------------------------|
   ↓ ↓ ↓  ↑ ↓ ↑ ↓ ↑ ↓ ↑ ↓ ↑ ↓ ↑

  C7M
E|-------------------------------|
B|-------x-x---x---x-x-----------|
G|-------x-x---x---x-x-----------|
D|-2-2-3-x-x-2-x-3-x-x-2h3p2h3-3-|
A|-3-3-3-x-x---x---x-x-3---------|
E|-------------------------------|
   ↓ ↓ ↓  ↑ ↓ ↑ ↓ ↑ ↓ ↑ ↓        ↑

(Parte 2 de 2)
  Dm6
E|-------------------------------|
B|---x-x-x---------x-x-x-x-------|
G|-2-x-x-x-2-2-2-2-x-x-x-x-2-2-2-|
D|-3-x-x-x-3-3-3-3-x-x-x-x-3-3-3-|
A|-5-x-x-x-5-5-5-5-x-x-x-x-5-5-5-|
E|-------------------------------|
   ↓ ↑ ↓ ↑  ↓ ↑ ↓ ↑  ↓ ↑ ↓ ↑ ↓ ↑ ↓
  
  Am7
E|----------------------------|
B|----------------------------|
G|---x-x-x---x-x---x---x-x----|
D|-3-x-x-x-3-x-x-3-x-3-x-x----|
A|-3-x-x-x-3-x-x-3-x-3-x-x----|
E|-5-x-x-x-5-x-x-5-x-5-x-x----|
   ↓ ↑ ↓ ↑  ↓ ↑ ↓ ↑ ↓ ↑ ↓ ↑

E|-------------------|
B|-------------------|
G|-----------x-x-x-x-|
D|-2h3p2h3-3-x-x-x-x-|
A|-----------x-x-x-x-|
E|-----------x-x-x-x-|
   ↓       ↑  ↓ ↑ ↓ ↑

 Bb7M
E|-----------------------------|
B|-----------x-x-x-x-x-x-x-----|
G|-2-2-2-2---x-x-x-x-x-x-x-2-2-|
D|-0-0-0-0-3-x-x-x-x-x-x-x-3---|
A|-1-1-1-1---x-x-x-x-x-x-x-1---|
E|-----------------------------|
   ↓ ↑ ↓ ↑  ↓ ↑ ↓ ↑ ↓ ↑ ↓ ↑  ↓ ↑

  C7M
E|-------------------------------|
B|-------x-x---x---x-x-----------|
G|-------x-x---x---x-x-----------|
D|-2-2-3-x-x-2-x-3-x-x-2h3p2h3-3-|
A|-3-3-3-x-x---x---x-x-3---------|
E|-------------------------------|
   ↓ ↓ ↓  ↑ ↓ ↑ ↓ ↑ ↓ ↑ ↓        ↑

[Primeira Parte]

Dm6
   I'm tryna put you
                   Am7
In the worst mood, ah

P1 cleaner than
                   Bb7M
Your church shoes, ah

Milli point two
                  C7M
Just to hurt you, ah

All red Lamb’
                   Dm6
Just to tease you, ah

None of these
                   Am7
Toys on lease too, ah

Made your whole
                    Bb7M
Year in a week too, yah

Main bitch out
                 C7M
Your league too, ah

Side bitch out of
                 Dm6
Your league too, ah

[Pré-refrão]

Dm6
   House so empty
               Am7
Need a centerpiece

Twenty racks a table
              Bb7M
Cut from ebony

Cut that ivory
               C7M
Into skinny pieces

Then she clean it

With her face, man
          Dm6
I love my baby

You talking money
               Am7
Need a hearing aid

You talking 'bout me
                 Bb7M
I don’t see the shade

Switch up my style
             C7M
I take any lane

I switch up my cup

I kill any pain

[Refrão]

Dm6  Am7                 Bb7M
       Look what you've done
C7M                     Dm6
   I'm a motherfuckin' starboy
        Am7
Ah-ah-ah
                 Bb7M
Look what you've done
C7M                     Dm6
   I'm a motherfuckin' starboy

[Segunda Parte]

Dm6                           Am7
   Every day a try to test me, ah
                          Bb7M
Every day a try to end me, ah
                              C7M
Pull off in that Roadster SV, ah

Pockets overweight
               Dm6
Gettin' hefty, ah

Coming for the king
                  Am7
That's a far cry, ah
                            Bb7M
I come alive in the fall time

I no competition
                   C7M
I don't really listen

I’m in the blue Mulsanne
                  Dm6
Bumping New Edition

[Pré-refrão]

Dm6
   House so empty
               Am7
Need a centerpiece

Twenty racks a table
              Bb7M
Cut from ebony

Cut that ivory
               C7M
Into skinny pieces

Then she clean it

With her face, man
          Dm6
I love my baby

You talking money
               Am7
Need a hearing aid

You talking 'bout me
                 Bb7M
I don’t see the shade

Switch up my style
             C7M
I take any lane

I switch up my cup

I kill any pain

[Refrão]

Dm6  Am7                 Bb7M
       Look what you've done
       C7M
Eh baby
                     Dm6
I'm a motherfuckin' starboy
        Am7
Ah ah ah
                 Bb7M
Look what you've done
C7M                     Dm6
   I'm a motherfuckin' starboy

[Terceira Parte] 

Dm6
   Let a Brad Pitt
Am7
Legend Of the Fall took the

Year like a bandit
Bb7M
Bought mama a crib and a

Brand new wagon
C7M
Now she hit the grocery

Shop looking lavish
Dm6
Star Trek roof in that

Wraith of Khan
Am7
Girls get loose when they

Hear this song
Bb7M
    One hundred on the dash
                   C7M
Get me close to God

We don't pray for love
                   Dm6
We just pray for cars

[Pré-refrão]

Dm6
   House so empty
               Am7
Need a centerpiece

Twenty racks a table
           Bb7M
Cut from ebony

Cut that ivory
               C7M
Into skinny pieces

Then she clean it

With her face, man
        Dm6
I love my baby

You talking money
               Am7
Need a hearing aid

You talking 'bout me
                  Bb7M
I don’t see the shade

Switch up my style
             C7M
I take any lane

I switch up my cup
           Dm6  Am7
I kill any pa_in

[Refrão Final]

Am7                 Bb7M
   Look what you've done
      C7M
Eh baby
                     Dm6
I'm a motherfuckin' starboy
          Am7
Ah-ah-ah-ah
                  Bb7M
Look what you've done
                  C7M
Look what you've done
                  Dm6
Look what you've done
                  Am7
Look what you've done
                 Bb7M  C7M
Look what you've dooo_ne
                     Dm6
I'm a motherfuckin' starboy!
00:00 / 00:00
Outros vídeos desta música
Repetir
Outros vídeos desta música
Composição de The Weekend
Colaboração e revisão:
  • Vinícius Mangeth
373 exibições
    • ½ Tom
    • A
    • Bb
    • B
    • C
    • Db
    • D
    • Eb
    • E
    • F
    • F#
    • G
    • Ab
  • Adicionar à lista

    0 comentários

    Ver todos os comentários

    Conseguiu tocar?

    0 Tocaram 0 Ainda não

    Grave um vídeo tocando Starboy e nos envie!

    Entre para oCifra Club PRO

    Tenha acesso a benefícios exclusivos no App e no Site

    • Chega de anúncios

    • Prioridade de compra em lançamentos

    • Mais recursos no app do Afinador

    • Atendimento Prioritário

    • Descontos nos produtos Cifra Club

    • Ajude a produzir mais conteúdo

    00:00 / 00:00

    Cifra Club Pro

    Aproveite o Cifra Club com benefícios exclusivos e sem anúncios
    Cifra Club Pro
    Aproveite o Cifra Club com benefícios exclusivos e sem anúncios
    OK