Cifra Club

Prato do Dia

Tião Carreiro e Pardinho

Cifra: Principal
exibições 214.688
Tom: C
[Intro]

E|---------------------------------------------------------------------------------------------|                                                                                                     B|---------------------------------------------------------------------------------------------|
G|------------2--------------2-----------------------------------------------------------------|
D|------2----------2----3----------2---3-----0-------------------------------------------------|
A|--3------------------------------------------------------------------------------------------|
E|---------------------------------------------------------------------------------------------|

E|---------------------------------------------------------------------------------------------|                                                                                                    -B|----------------------------------------------------1---------------------------------------|
G|-----0----0--0---0------------------------------0--------------------------------------------|
D|------------------------3--2--------------------2--------------------------------------------|
A|---------------------------------0--2---3-----3----------------------------------------------|
E|---------------------------------------------------------------------------------------------|

          C
Sobre as margens de uma estrada 
     G                  C
Uma simples pensão existia
   C7                 F
A comida era tipo caseira
            C              F    C  F
E o frango caipira era o prato do dia
        C                 F
Proprietário homem de respeito
        C               F   F7
Ali trabalhava com sua familia
                     G7
Cozinheira era a sua esposa
                           C
E a garçonete era uma das filhas

[Solo]

E|-------------------------------------------------------------------------------------------|                                                                                         B|-------------------------------------------------------------------------------------------|
G|------------2--------------2---------------------------------------------------------------|
D|------2----------2----3----------2---3-----0-----------------------------------------------|
A|--3----------------------------------------------------------------------------------------|
E|-------------------------------------------------------------------------------------------|

E|-------------------------------------------------------------------------------------------|                                                                                           B|----------------------------------------------------1--------------------------------------|
G|-----0----0--0---0------------------------------0------------------------------------------|
D|------------------------3--2--------------------2------------------------------------------|
A|---------------------------------0--2---3-----3--------------------------------------------|
E|-------------------------------------------------------------------------------------------|

Foi chegando naquela pensão
um viajante já fora de hora
foi dizendo para a garçonete
me traga um frango vou jantar agora
Eu estou bastante atrasado
terminando eu já vou embora
ela então respondeu num sorriso
mamãe tá de pé, pode crer, não demora

[Solo]

E|-----------------------------------------------------------------------------------------------|                                                                                        B|-----------------------------------------------------------------------------------------------|
G|------------2--------------2-------------------------------------------------------------------|
D|------2----------2----3----------2---3-----0---------------------------------------------------|
A|--3--------------------------------------------------------------------------------------------|
E|-----------------------------------------------------------------------------------------------|

E|-----------------------------------------------------------------------------------------------|                                                                                            B|----------------------------------------------------1------------------------------------------|
G|-----0----0--0---0------------------------------0----------------------------------------------|
D|------------------------3--2--------------------2----------------------------------------------|
A|---------------------------------0--2---3-----3------------------------------------------------|
E|-----------------------------------------------------------------------------------------------|

Quando ela foi servir a mesa
delicada e com muito bom jeito
me desculpe mas trouxe uma franga
talvez não esteja cozida direito
O viajante foi lhe respondendo
pra mim franga crua talvez eu aceito
sendo uma igual a você
seja a qualquer hora também não enjeito

[Solo]

E|-----------------------------------------------------------------------------------------------|                                                                                            B|-----------------------------------------------------------------------------------------------|
G|------------2--------------2-------------------------------------------------------------------|
D|------2----------2----3----------2---3-----0---------------------------------------------------|
A|--3--------------------------------------------------------------------------------------------|
E|-----------------------------------------------------------------------------------------------|

E|-----------------------------------------------------------------------------------------------|                                                                                            B|----------------------------------------------------1------------------------------------------|
G|-----0----0--0---0------------------------------0----------------------------------------------|
D|------------------------3--2--------------------2----------------------------------------------|
A|---------------------------------0--2---3-----3------------------------------------------------|
E|-----------------------------------------------------------------------------------------------|

Foi saindo de cabeça baixa
Pra queixar ao seu pai a mocinha
Minha filha mate outra franga
Pode temperar porém não cozinha
Vou levar essa franga na mesa
Se bem que comigo a conversa é curtinha
É a coisa que mais eu detesto
Ver homem barbado fazendo gracinha

[Solo]

E|----------------------------------------------------------------------------------------------|                                                                                         B|----------------------------------------------------------------------------------------------|
G|------------2--------------2------------------------------------------------------------------|
D|------2----------2----3----------2---3-----0--------------------------------------------------|
A|--3-------------------------------------------------------------------------------------------|
E|----------------------------------------------------------------------------------------------|

E|----------------------------------------------------------------------------------------------|                                                                                          B|----------------------------------------------------1-----------------------------------------|
G|-----0----0--0---0------------------------------0---------------------------------------------|
D|------------------------3--2--------------------2---------------------------------------------|
A|---------------------------------0--2---3-----3-----------------------------------------------|
E|----------------------------------------------------------------------------------------------|


Foi chegando o velho e dizendo
Vim trazer o pedido que fez
Quando o cara tentou recusar
Já se viu na mira de um Schimitt inglês
O negócio  foi limpar o prato
Quando o proprietário lhe disse cortez
Nós estamos de portas abertas
                       F   G7  C
Pra servir a moda que pede o freguês

[Final]

E|---------8-----------1---------3---------------------------------------|
B|---------8-----------1---------3---------------------------------------|
G|----------9----------2-----------4-------------------------------------|
D|-----------10--------3----------5--------------------------------------|
A|------------10-------3-----------5-------------------------------------|
E|-------------8---------1-----------3-----------------------------------|
Acordes para:
    Colaboração e revisão:

    0 comentários

      mostrar mais comentários

      Conseguiu tocar?

      2tocaram2ainda não

      Grave um vídeo tocando Prato do Dia e mande pra gente!

      00:00 / 00:00
      outros vídeos desta música
      repetirqualidadeautomática
      Outro vídeos desta música
        00:00 / 00:00
        automática
        OK