Cifra Club

Aprenda

Reconquista

Tierra Santa

Cifra: Versão 2 (violão e guitarra)
tom: G

 INTRO
E|-------------------------------------------------------|
B|-------------------------------------------------------|
G|---------9--7--------------------------9--5------------|
D|-2-------9--7---5-4-5-4--------2-------9--5------------|
A|-2-------7--5-----------7-5----2-------7--3------------|
E|-0--0-0------------------------0--0-0-------------2----|
     . .                           . .
E|-------------------------------------------------------|
B|-------------------------------------------------------|
G|---------9--7------------------5-------5--7------------|
D|-2-------9--7---5-4-5-4--------5-------5--7------------|
A|-2-------7--5-----------7-5----3-------3--5------------|
E|-0--0-0-----------------------------------------3-2----|
     . .
E|-------------------------------------------------------|
B|-------------------------------------------------------|
G|---------9--7--------------------------9--5------------|
D|-2-------9--7---5-4-5-4--------2-------9--5------------|
A|-2-------7--5-----------7-5----2-------7--3------------|
E|-0--0-0------------------------0--0-0-------------2----|
     . .                           . .
E|-------------------------------------------------------|
B|-------------------------------------------------------|
G|---------9--7------------------5-------5--7------------|
D|-2-------9--7---5-4-5-4--------5-------5--7------------|
A|-2-------7--5-----------7-5----3-------3--5------------|
E|-0--0-0-----------------------------------------3-2----|
     . .
E|-------------------------------------------------------|
B|-------------------------------------------------------|
G|-------------------------------------------------------|
D|--2----------------2---------------------2-------------|
A|--2----------------2---------------4--5-----5--4-------|
E|--0----------------0-----------------------------------|

 PARTE EN QUE SE CANTA
E|---------------------------|---------------------------|
B|---------------------------|---------------------------|
G|-9---------9---------9--7--|--9---------9---------5--7-|
D|-9---------9---------9--7--|--9---------9---------5--7-|
A|-7-7-7-7---7-7-7-7---7--5--|--7-7-7-7---7-7-7-7---3--5-|
E|---------------------------|---------------------------|
    . . .     . . .              . . .     . . .
E|-----------------------------|-------------------------|
B|-----------------------------|-------------------------|
G|-9---------9---------9--7--5-|--5---7----------2-------|
D|-9---------9---------9--7--5-|--5---7----4--5-----4--5-|
A|-7-7-7-7---7-7-7-7---7--5--3-|--3---5------------------|
E|-----------------------------|-------------------------|
    . . .     . . .
E|---------------------------|---------------------------|
B|---------------------------|---------------------------|
G|-9---------9---------9--7--|--5---------5---------5--5-|
D|-9---------9---------9--7--|--5---------5---------5--5-|
A|-7-7-7-7---7-7-7-7---7--5--|--3-3-3-3---3-3-3-3---3--3-|
E|---------------------------|---------------------------|
    . . .     . . .              . . .     . . .
E|-----------------------------|-------------------------|
B|-----------------------------|-------------------------|
G|-7---------7---------7--7--5-|--5---7----------2-------|
D|-7---------7---------7--7--5-|--5---7----4--5-----4--5-|
A|-5-5-5-5---5-5-5-5---5--5--3-|--3---5------------------|
E|-----------------------------|-------------------------|
    . . .     . . .

 ESTRIBILLO
E|-------------------------------------------------------|
B|-------------------------------------------------------|
G|---------9--7--------------------------9--5------------|
D|-2-------9--7---5-4-5-4--------2-------9--5------------|
A|-2-------7--5-----------7-5----2-------7--3------------|
E|-0--0-0------------------------0--0-0-------------2----|
     . .                           . .
E|-------------------------------------------------------|
B|-------------------------------------------------------|
G|---------9--7------------------5-----5-----5-----5--5--|
D|-2-------9--7---5-4-5-4--------5-----5-----5-----5--5--|
A|-2-------7--5-----------7-5----3-3-3-3-3-3-3-3-3-3--3--|
E|-0--0-0------------------------------------------------|
     . .                          . .   . .   . .
E|-------------------------------------------------------|
B|-------------------------------------------------------|
G|-7-----7-----7-----7--7----5-----5-----5-----5-----7-7-|
D|-7-----7-----7-----7--7----5-----5-----5-----5-----7-7-|
A|-5-5-5-5-5-5-5-5-5-5--5----3-3-3-3-3-3-3-3-3-3-4---5-5-|
E|-------------------------------------------------------|
    . .   . .   . .           . .   . .   . .

 INTRO
E|-------------------------------------------------------|
B|-------------------------------------------------------|
G|---------9--7--------------------------9--5------------|
D|-2-------9--7---5-4-5-4--------2-------9--5------------|
A|-2-------7--5-----------7-5----2-------7--3------------|
E|-0--0-0------------------------0--0-0-------------2----|
     . .                           . .
E|-------------------------------------------------------|
B|-------------------------------------------------------|
G|---------9--7------------------5-------5--7------------|
D|-2-------9--7---5-4-5-4--------5-------5--7------------|
A|-2-------7--5-----------7-5----3-------3--5------------|
E|-0--0-0-----------------------------------------3-2----|
     . .

 PUNTEO
E|--------------------------7----------------------------------------|
B|-------7-8-7-----8-7-8-10---10-8-7-8-7---------7-8-7------10-8-7---|
G|-9-7-9-------9-7-----------------------9---7-9--------9-7--------7-|
D|-------------------------------------------------------------------|
A|-------------------------------------------------------------------|
E|-------------------------------------------------------------------|

E|--------------------------7----------------------------------------|
B|-------7-8-7-----8-7-8-10---10-8-7-8-7---------7-8-7------10-8-7---|
G|-9-7-9-------9-7-----------------------9---7-9--------9-7--------7-|
D|-------------------------------------------------------------------|
A|-------------------------------------------------------------------|
E|-------------------------------------------------------------------|

E|--------------------------7----------------------------------------|
B|-------7-8-7-----8-7-8-10---10-8-7-8-7---------7-8-7------10-8-7---|
G|-9-7-9-------9-7-----------------------9---7-9--------9-7--------7-|
D|-------------------------------------------------------------------|
A|-------------------------------------------------------------------|
E|-------------------------------------------------------------------|

E|--------------------------7----------------------------------------|
B|-------7-8-7-----8-7-8-10---10-8-7----8b10---------10b12----10b12--|
G|-9-7-9-------9-7---------------------------------------------------|
D|-------------------------------------------------------------------|
A|-------------------------------------------------------------------|
E|-------------------------------------------------------------------|

 ACOMPAÑAEE NTO DEL PUNTEO D PETIR 4 VECES
E|-------------------------------------------------------------------|
B|-------------------------------------------------------------------|
G|-5-----------5----7-----------7----9----------9-----------9----7---|
D|-5-----------5----7-----------7----9----------9-----------9----7---|
A|-3-3-3-3-----3----5-5-5-5-----5----7-7-7-7----7-7-7-7-----7----5---|
E|-------------------------------------------------------------------|
    . . .            . . .            . . .      . . .

G  O (el acompañamiento es el intro y el estribillo)
E|-----15-----------12--------------------------------------|
B|-17------15b17--------15b17----15-12----------------------|
G|-------------------------------------14-------12-11-------|
D|-------------------------------------------14-------1214-|
A|----------------------------------------------------------|
E|----------------------------------------------------------|

E|--------------------------------------------------------------------|
B|----------------------------------12-1310/12--12-12-12-12-13-12----|
G|----------------------------12-14--------------------------------14-|
D|----------12-14-15-12-14-16-----------------------------------------|
A|-12-14-15-----------------------------------------------------------|
E|--------------------------------------------------------------------|

E|----------17b19| —17b19---17b-17b-17b19--17-15-17-15-----|
B|-15-17-17------------------------------------------17--|
G|-------------------------------------------------------|
D|-------------------------------------------------------|
A|-------------------------------------------------------|
E|-------------------------------------------------------|

E|-12-15-14----12-15-14----12-14-15-----17-15-17-17b19--17-15-17-|
B|----------12----------15----------15---------------------------|
G|---------------------------------------------------------------|
D|---------------------------------------------------------------|
A|---------------------------------------------------------------|
E|---------------------------------------------------------------|

E|-15-14-15-14---------------15-14-12------------------------|
B|-------------15------15-17---------------------------------|
G|----------------17------------------14-12-11-12-11-9-------|
D|-----------------------------------------------------9-10--|
A|-----------------------------------------------------------|
E|-----------------------------------------------------------|

E|-------------7-8-7------------7-8-7-------------|
B|---------7-8-------10-8-7-----------10-8-7------|
G|-----7-9------------------9-7--------------9-7--|
D|-7-9--------------------------------------------|
A|------------------------------------------------|
E|------------------------------------------------|

E|-15-12-15-17-15-17--17b19---17b19---17b19-----15-------|
B|---------------------------------------------------17--|
G|-------------------------------------------------------|
D|-------------------------------------------------------|
A|-------------------------------------------------------|
E|-------------------------------------------------------|

INTRO
E|-------------------------------------------------------|
B|-------------------------------------------------------|
G|---------9--7--------------------------9--5------------|
D|-2-------9--7---5-4-5-4--------2-------9--5------------|
A|-2-------7--5-----------7-5----2-------7--3------------|
E|-0--0-0------------------------0--0-0-------------2----|
     . .                           . .
E|-------------------------------------------------------|
B|-------------------------------------------------------|
G|---------9--7------------------5-------5--7------------|
D|-2-------9--7---5-4-5-4--------5-------5--7------------|
A|-2-------7--5-----------7-5----3-------3--5------------|
E|-0--0-0-----------------------------------------3-2----|
     . .
E|-------------------------------------------------------|
B|-------------------------------------------------------|
G|---------9--7--------------------------9--5------------|
D|-2-------9--7---5-4-5-4--------2-------9--5------------|
A|-2-------7--5-----------7-5----2-------7--3------------|
E|-0--0-0------------------------0--0-0-------------2----|
     . .                           . .

E|--------------------------------------------------------|
B|--------------------------------------------------------|
G|---------9--7------------------5-------5--7-------2-----|
D|-2-------9--7---5-4-5-4--------5-------5--7---4-5---5-4-|
A|-2-------7--5-----------7-5----3-------3--5-------------|
E|-0--0-0-------------------------------------------------|
     . .

PARTE EN QUE SE CANTA
E|---------------------------|---------------------------|
B|---------------------------|---------------------------|
G|-9---------9---------9--7--|--9---------9---------5--7-|
D|-9---------9---------9--7--|--9---------9---------5--7-|
A|-7-7-7-7---7-7-7-7---7--5--|--7-7-7-7---7-7-7-7---3--5-|
E|---------------------------|---------------------------|
    . . .     . . .              . . .     . . .
E|-----------------------------|-------------------------|
B|-----------------------------|-------------------------|
G|-9---------9---------9--7--5-|--5---7----------2-------|
D|-9---------9---------9--7--5-|--5---7----4--5-----4--5-|
A|-7-7-7-7---7-7-7-7---7--5--3-|--3---5------------------|
E|-----------------------------|-------------------------|
    . . .     . . .
E|---------------------------|---------------------------|
B|---------------------------|---------------------------|
G|-9---------9---------9--7--|--5---------5---------5--5-|
D|-9---------9---------9--7--|--5---------5---------5--5-|
A|-7-7-7-7---7-7-7-7---7--5--|--3-3-3-3---3-3-3-3---3--3-|
E|---------------------------|---------------------------|
    . . .     . . .              . . .     . . .
E|-----------------------------|-------------------------|
B|-----------------------------|-------------------------|
G|-7---------7---------7--7--5-|--5---7----------2-------|
D|-7---------7---------7--7--5-|--5---7----4--5-----4--5-|
A|-5-5-5-5---5-5-5-5---5--5--3-|--3---5------------------|
E|-----------------------------|-------------------------|
    . . .     . . .

 ESTRIBILLO
E|-------------------------------------------------------|
B|-------------------------------------------------------|
G|---------9--7--------------------------9--5------------|
D|-2-------9--7---5-4-5-4----------------9--5------------|
A|-2-------7--5-----------7-5----2-------7--3------------|
E|-0--0-0------------------------0--0-0-------------2----|
     . .                           . .
E|-------------------------------------------------------|
B|-------------------------------------------------------|
G|---------9--7------------------5-----5-----5-----5--5--|
D|-2-------9--7---5-4-5-4--------5-----5-----5-----5--5--|
A|-2-------7--5-----------7-5----3-3-3-3-3-3-3-3-3-3--3--|
E|-0--0-0------------------------------------------------|
     . .                          . .   . .   . .
E|-------------------------------------------------------|
B|-------------------------------------------------------|
G|-7-----7-----7-----7--7----5-----5-----5-----5-----7-7-|
D|-7-----7-----7-----7--7----5-----5-----5-----5-----7-7-|
A|-5-5-5-5-5-5-5-5-5-5--5----3-3-3-3-3-3-3-3-3-3-4---5-5-|
E|-------------------------------------------------------|
    . .   . .   . .           . .   . .   . .

 INTRO
E|-------------------------------------------------------|
B|-------------------------------------------------------|
G|---------9--7--------------------------9--5------------|
D|-2-------9--7---5-4-5-4--------2-------9--5------------|
A|-2-------7--5-----------7-5----2-------7--3------------|
E|-0--0-0------------------------0--0-0-------------2----|
     . .                           . .
E|-------------------------------------------------------|
B|-------------------------------------------------------|
G|---------9--7------------------5-------5--7------------|
D|-5-------9--7---5-4-5-4--------5-------5--7------------|
A|-2-------7--5-----------7-5----3-------3--5------------|
E|-0--0-0-----------------------------------------3-2----|
     . .
E|-------------------------------------------------------|
B|-------------------------------------------------------|
G|---------9--7--------------------------9--5------------|
D|-2-------9--7---5-4-5-4--------2-------9--5------------|
A|-2-------7--5-----------7-5----2-------7--3------------|
E|-0--0-0------------------------0--0-0-------------2----|
     . .                           . .
E|------------------------------------------------------------|
B|------------------------------------------------------------|
G|---------9--7------------------5-------5--7-----------------|
D|-2-------9--7---5-4-5-4--------5-------5--7-----5---4---2---|
A|-2-------7--5-----------7-5----3-------3--5-----5| —--4---2---|
E|-0--0-0-----------------------------------------3---2| —--0---|
     . .
Compositor não encontrado.
    • ½ Tom
    • A
    • Bb
    • B
    • C
    • Db
    • D
    • Eb
    • E
    • F
    • F#
    • G
    • Ab
  • Adicionar à lista

    0 comentários

    Ver todos os comentários

    Conseguiu tocar?

    0 Tocaram 0 Ainda não

    Grave um vídeo tocando Reconquista e nos envie!

    00:00 / 00:00
    Outros vídeos desta música
    Repetir Qualidade Automático
    Outros vídeos desta música
    00:00 / 00:00
    Automático

    Cifra Club Pro

    Aproveite o Cifra Club com benefícios exclusivos e sem anúncios
    Cifra Club Pro
    Aproveite o Cifra Club com benefícios exclusivos e sem anúncios
    OK