Cifra Club

Cabeça Branca

Tierry

Cifra: Principal (violão e guitarra)
Selo Cifra Club: esta cifra foi revisada para atender aos critérios oficiais da nossa Equipe de Qualidade.
tom: D
[Intro] D  A  G  D

[Tab - Solo Intro]

Parte 1 de 4
     D
E|-------------10----10---------------------|
B|----------10----------10----10------------|
G|-------11----------------11---------------|
D|---12-----------12------------------------|
A|------------------------------------------|
E|------------------------------------------|

Parte 2 de 4
    A
E|----------5---5---------------------------|
B|--------5-------5---5---------------------|
G|------6-----------6-----------------------|
D|---7--------7-----------------------------|
A|------------------------------------------|
E|------------------------------------------|

Parte 3 de 4
     G
E|----------3---3---------------------------|
B|--------3-------3---3---------------------|
G|------4-----------4-----------------------|
D|---5--------5-----------------------------|
A|------------------------------------------|
E|------------------------------------------|

Parte 4 de 4
     D
E|-------------10----10---------------------|
B|----------10----------10----10------------|
G|-------11----------------11---------------|
D|---12-----------12------------------------|
A|------------------------------------------|
E|------------------------------------------|

[Primeira Parte]

         D                     A
Cabeça branca é um cidadão de bem
         G                     D
Um empresário que precisa relaxar
                             A
Fim de semana ele pega as novinhas
        G                          D
E patrocina um churrascão em alto-mar

[Pré-Refrão]

        D                       A
A mulherada de copo na mão, biquíni fio dental
          G                   D
Postando foto na sua rede social
                                   A
Cheia de pose de patroa, ela é da zona
            G                       D  
Quem vê de longe pensa que ela é a dona

[Refrão]

               D                  A
Mas o dono da lancha é o cabeça branca
                  G                 D
A champanhe quem banca é o cabeça branca
                             A
Por que novinha, na hora da selfie
               G                     D
Junto com as amiga o coroa nunca aparece

               D                  A
Mas o dono da lancha é o cabeça branca
                  G                 D
A champanhe quem banca é o cabeça branca
                             A
Por que novinha, na hora da selfie
               G                     D
Junto com as amiga o coroa nunca aparece

[Solo] D  A  G  D
 D  A  G  D

Parte 1 de 2
          D               A
E|------------------------------------------|
B|----------------7p3---7-5-----------------|
G|--4h5h6h7-7---------6---------------------|
D|-------------7----------------------------|
A|------------------------------------------|
E|------------------------------------------|

Parte 2 de 2
          G              D    
E|------------------------------------------|
B|--5h6h7h8-8---8p5----8-7------------------|
G|------------7-----7-----------------------|
D|------------------------------------------|
A|------------------------------------------|
E|------------------------------------------|

Parte 3 de 4
          D               A
E|------------------------------------------|
B|----------------7p3---7-5-----------------|
G|--4h5h6h7-7---------6---------------------|
D|-------------7----------------------------|
A|------------------------------------------|
E|------------------------------------------|

Parte 4 de 4
          G              D    
E|------------------------------------------|
B|--5h6h7h8-8---8p5----8-7------------------|
G|------------7-----7-----------------------|
D|------------------------------------------|
A|------------------------------------------|
E|------------------------------------------|

[Pré-Refrão]

          D                       A
E a mulherada de copo na mão, biquíni fio dental
          G                   D
Postando foto na sua rede social
                                   A
Cheia de pose de patroa, ela é da zona
            G                       D
Quem vê de longe pensa que ela é a dona

[Refrão Final]

               D                  A
Mas o dono da lancha é o cabeça branca
                  G                 D
A champanhe quem banca é o cabeça branca
                             A
Por que novinha, na hora da selfie
               G                     D
Junto com as amiga o coroa nunca aparece

           D                  A
O dono da lancha é o cabeça branca
                  G                 D
A champanhe quem banca é o cabeça branca
                             A
Por que novinha, na hora da selfie
               G                     D
Junto com as amiga o coroa nunca aparece

[Solo Final] D  A  G  D
 D  A  G  D

Parte 1 de 2
          D               A
E|------------------------------------------|
B|----------------7p3---7-5-----------------|
G|--4h5h6h7-7---------6---------------------|
D|-------------7----------------------------|
A|------------------------------------------|
E|------------------------------------------|

Parte 2 de 2
          G              D    
E|------------------------------------------|
B|--5h6h7h8-8---8p5----8-7------------------|
G|------------7-----7-----------------------|
D|------------------------------------------|
A|------------------------------------------|
E|------------------------------------------|

Parte 3 de 4
          D               A
E|------------------------------------------|
B|----------------7p3---7-5-----------------|
G|--4h5h6h7-7---------6---------------------|
D|-------------7----------------------------|
A|------------------------------------------|
E|------------------------------------------|

Parte 4 de 4
          G              D    
E|------------------------------------------|
B|--5h6h7h8-8---8p5----8-7------------------|
G|------------7-----7-----------------------|
D|------------------------------------------|
A|------------------------------------------|
E|------------------------------------------|
Outros vídeos desta música
    477.287 exibições
      • ½ Tom
      • A
      • Bb
      • B
      • C
      • Db
      • D
      • Eb
      • E
      • F
      • F#
      • G
      • Ab
    • Adicionar à lista

    Afinação da cifra

    Afinador online

      0 comentários

      Ver todos os comentários

      Entre para o Cifra Club PRO

      Tenha acesso a benefícios exclusivos no App e no Site

      • Chega de anúncios

      • Badges exclusivas

      • Mais recursos no app do Afinador

      • Atendimento Prioritário

      • Aumente seu limite de lista

      • Ajude a produzir mais conteúdo

      Cifra Club Pro

      Aproveite o Cifra Club com benefícios exclusivos e sem anúncios
      Cifra Club Pro
      Aproveite o Cifra Club com benefícios exclusivos e sem anúncios
      Ops (: Contenido disponible sólo en portugués.
      OK