Cifra Club

Aprenda

De Longe

Tihuana

Cifra: Principal (violão e guitarra)
tom: D
(intro)

E|---------------------------------
B|---------------------------------
G|-----4-4--------------2-2--------
D|----4-4-4------------2-2-2-------
A|--2---------------0--------------
E|-----------2----------------0----

(Bm F#m A E)
Ver as coisas como elas são
E não ter por onde sair
Ter idéia do que vem, de quantos dias em vão
E não poder nunca desistir
Vejo tudo então...

Na vida eu aprendi que o tempo é sempre quem resolve
tudo
O que eu sabia como certo passou,desmoronando as bases
do meu mundo
G
As bases do meu mundo...

(D A G)
Eu só queria saber por onde caminhar
E não ficar esperando alguém vir me buscar
Sentar em frente ao mar pra lembrar de alguém que há
muito não se vê...  [2x]

(Bm F#m A E)
Já não sei se é saudade
Ou o costume de pensar em você
Todo momento bom me traz seu rosto
E é impossível não perceber
O que sinto,não...

(Bm F#m A E)
Eu vou levando,eu vou vivendo,eu vou sorrindo,eu vou
chorando,eu vou te vendo
De longe,eu vou te olhando de longe
Só pra saber se vale a pena ficar por aqui ou se eu
vou embora
Se eu vou embora
G
Eu tô indo embora...

(D A G)
Eu só queria saber por onde caminhar
E não ficar esperando alguém vir me buscar
Sentar em frente ao mar pra lembrar de alguém que há
muito não se vê... [2x]

E|-------------------------------------------------
B|--8-7--------------------------------------------
G|------7-7-7-7h9----------------------------------
D|-------7-7-----9--------------------------------- [2x]
A|-------------------------------------------------
E|-------------------------------------------------

E|-15-14-------------------------------------------
B|------15--15--15-15h17---------------------------
G|--------14--14--------16-------------------------
D|------------------------------------------------- [2x]
A|-------------------------------------------------
E|-------------------------------------------------

Que há muito não se vê... [3x]
Composição de Ivy / Tihuana
68.712 exibições
    • ½ Tom
    • A
    • Bb
    • B
    • C
    • Db
    • D
    • Eb
    • E
    • F
    • F#
    • G
    • Ab
  • Adicionar à lista

    0 comentários

    Ver todos os comentários

    Conseguiu tocar?

    6 Tocaram 0 Ainda não

    Grave um vídeo tocando De Longe e nos envie!

    00:00 / 00:00
    outros vídeos desta música
    repetir qualidade Automático
    Outros vídeos desta música
    00:00 / 00:00
    Automático

    Cifra Club Pro

    Aproveite o Cifra Club com benefícios exclusivos e sem anúncios
    Cifra Club Pro
    Aproveite o Cifra Club com benefícios exclusivos e sem anúncios
    OK