Cifra Club

Aprenda

Renata

Tihuana

Cifra: Principal (violão e guitarra)
tom: G
Riff 1
E |---------------------------------------------------------------------------|
B |---------------------------------------------------------------------------|
G |-------------------------------------0-4-0-4-0-----------------------------|
D |-------5---5---------4-7-4-7-4-----2-----------------2-5-2-5-2-------------|
A |-----5---5---5-----5-------------------------------3-----------------------|
E |---3-----------------------------------------------------------------------|

E |-----------------------------------------------------------------0~--------|
B |-----------------------------------------------------------------0~--------|
G |-----------------------------------------------------------------0~--------|
D |-------5---5---------4-7-4-7-4-------2-5-2-5-2--------4-7-4-7-4--2~--------|
A |-----5---5---5-----5---------------3---------------5------------2~---------|
E |---3-------------------------------------------------------------0~~-------|

Riff 2
E |-----3---3----3---3----3---3----3---3----3---3----3---3----3---3----3---3--|
B |-------0----1---1----3---3----1---1--------0----1---1----3---3----1---1----|
G |---0-----------------------------------0-----------------------------------|(Em)
D |---------------------------------------------------------------------------|
A |---------------------------------------------------------------------------|
E |---------------------------------------------------------------------------|

guitarra 1 (Riff 2)
guitarra 2 (G C D C - abafado)
O mundo foi quem lhe  acolheu por pura caridade
Mas quando foi para escola, não podia mais ficar
Então ela partiu.

(Bm,C)
                       D                  Bm
Aos doze não é mais criança, e não pode esperar
        C           D
Por alguém assim pro resto da vida

G  D       Em            C             G
Me diz então o que você fez o que você fez
            D           C                    D
Da sua arte de sobreviver, desse seu jeito de sobreviver
G  D       Em            C             G
Me diz então o que você fez o que você fez
            D           C               D
Da sua arte de sobreviver, desse seu jeito de sobreviver

Riff 1
Ela não sabia o que é o amor
Ela não sabia mais

guitarra 1 (Riff 2)
guitarra 2 (G C D C - abafado)
Pensou em se casar ter um filho pra criar
Quis provar o que é amor
Mas teve medo de se apaixonar
Então partiu

(Bm,C)
                D                    Bm
Mas uma vez se foi, e ninguém vai esperar
       C      D
Por alguém assim pro resto da vida

G  D       Em            C             G
Me diz então o que você fez o que você fez
            D           C                    D
Da sua arte de sobreviver, desse seu jeito de sobreviver
G  D       Em            C             G
Me diz então o que você fez o que você fez
            D           C               D
Da sua arte de sobreviver, desse seu jeito de sobreviver

C              D                       C
Assim viveu Renata, impossível de esquecer
              D                           (Bm,C)
Ao ver alguém partir que não espera por você

    D
Que não espera por você

G  D       Em            C             G
Me diz então o que você fez o que você fez
            D           C                    D
Da sua arte de sobreviver, desse seu jeito de sobreviver
G  D       Em            C             G
Me diz então o que você fez o que você fez
            D           C               D
Da sua arte de sobreviver, desse seu jeito de sobreviver

Riff 1

Ela não sabia o que é o amor
Ela não sabia mais...
Ela não sabia o que é o amor
Ela não sabia mais...
Composição de Baia / Belex / Egypcio / Leo / PG / Roman
Colaboração e revisão:
347.238 exibições
    • ½ Tom
    • A
    • Bb
    • B
    • C
    • Db
    • D
    • Eb
    • E
    • F
    • F#
    • G
    • Ab
  • Adicionar à lista

    0 comentários

    Ver todos os comentários
    00:00 / 00:00
    outros vídeos desta música
    repetir qualidade Automático
    Outros vídeos desta música
    00:00 / 00:00
    Automático

    Cifra Club Pro

    Aproveite o Cifra Club com benefícios exclusivos e sem anúncios
    Cifra Club Pro
    Aproveite o Cifra Club com benefícios exclusivos e sem anúncios
    OK