Cifra Club

Aprenda

Sumertime

Tihuana

Cifra: Principal (violão e guitarra)
tom: A#
Int: Gm Cm
e|----------------------------------------------|
B|----------------------------------------------|
G|----------------------------------------------|
D|----------------------------------------------| 3x abafando as cordas
A|-----------1--5-1-3~-----333-111--------------|
E|--3-3-3--3------------3-----------------------|

e|----------------------------------------------|
B|----------------------------------------------|
G|----------------------------------------------| na quarta vez executar os slides
D|----------------------------------------------|
A|-----------1--5-1-3~-----3/15-----------------|
E|--3-3-3--3--------------------15/3------------|

entra a banda e a guitarra toca isso

e|----------------------------------------------|
B|----------------------------------------------|
G|------------7-7/9~--10-9-7--------------------|
D|---------8------------------10-8--------------|
A|--10--10--------------------------------------|
E|----------------------------------------------|


(Gm Cm)
Summertime, 
estamos todos aqui Rodando na estrada vejo a cidade sumir 
Som de praia na marola será sempre assim 
Agora vou embora vou pra longe daqui,
Cm
vi Longe daqui, 
roda na areia no mar harmonia da praia 
D
Sintonizada com o som das águas 
(Gm C)
Invadida na areia, molhando nossa alma a noite inteira, doideira 
Só quero o que é meu, não quero mais pedir(Os momentos, sentimentos, relacionamentos) 
Eu olho pro céu, antes de ver cair
Não reconheço mais as ruas por onde eu cresci 
A cidade não é mais do jeito nem do tempo de quando eu nasci

(Gm Cm)
Summertime, 
estamos todos aqui Rodando na estrada vejo a cidade sumir 
Som de praia na marola será sempre assim 
Agora vou embora vou pra longe daqui,
(Cm)
vi Longe daqui,
roda na areia no mar harmonia da praia
(D)
Sintonizada com o som das águas 

(Gm) 
Vivo, 
vivo nessa selva de pedra Vivemos sem sorrir 
Vivo, lutando por uma vida eterna 
Que nunca vai existir
(Gm Cm)
"tension is getting harder I like to hold her head underwater"


(Gm Cm)
Summertime, 
estamos todos aqui Rodando na estrada vejo a cidade sumir 
Som de praia na marola será sempre assim 
Agora vou embora vou pra longe daqui,
(Cm)
vi Longe daqui,
roda na areia no mar harmonia da praia
(D)
Sintonizada com o som das águas 
 
 
19.146 exibições
    • ½ Tom
    • A
    • Bb
    • B
    • C
    • Db
    • D
    • Eb
    • E
    • F
    • F#
    • G
    • Ab
  • Adicionar à lista

    0 comentários

    Ver todos os comentários

    Conseguiu tocar?

    0 Tocaram 0 Ainda não

    Grave um vídeo tocando Sumertime e nos envie!

    00:00 / 00:00
    outros vídeos desta música
    repetir qualidade Automático
    Outros vídeos desta música
    00:00 / 00:00
    Automático

    Cifra Club Pro

    Aproveite o Cifra Club com benefícios exclusivos e sem anúncios
    Cifra Club Pro
    Aproveite o Cifra Club com benefícios exclusivos e sem anúncios
    OK