Cifra Club

Tropa De Elite

Tihuana

Cifra: Principal (violão e guitarra)
Tom: C
Agora o bicho vai pegar!

[Introdução]

(Guitarra 1)
E|-----------------------------------------------------|
B|-----------------------------------------------------|
G|-----------------------------------------------------|
D|-0---x-0-----------0---x-0---------------------------|
A|-0---x-0---0-8b~---0---x-0---0-8b~-------------------|
E|-0---x-0---0-------0---x-0---0-----------------------|

E|-----------------------------------------------------|
B|-----------------------------------------------------|
G|-----------------------------------------------------|
D|-0---x-0---------x-0---1---2---3---------------------|
A|-0---x-0---0-8b~-x-0---1---2---3---------------------|
E|-0---x-0---0-----x-0---1---2---3---------------------|

E|-----------------------------------------------------|
B|-----------------------------------------------------|
G|-----------------------------------------------------|
D|-0-----5-6-5----3--0-----5-6-5-3---------------------|
A|-0-----5-6-5----3--0-----5-6-5-3---------------------|
E|-0-----5-6-5----3--0-----5-6-5-3---------------------|

E|-----------------------------------------------------|
B|-----------------------------------------------------|
G|-----------------------------------------------------|
D|-0-----5-6-5---0---3---5---6---7---------------------|
A|-0-----5-6-5---0---3---5---6---7---------------------|
E|-0-----5-6-5---0---3---5---6---7---------------------|

(Guitarra 2)
E|-----------------------------------------------------|
B|-7b---x-7-5b---x-5-7b---x-7-5b---x-5-----------------|
G|-7b---x-7-5b---x-5-7b---x-7-5b---x-5-----------------|
D|-7b---x-7-5b---x-5-7b---x-7-5b---x-5-----------------|
A|-----------------------------------------------------|
E|-----------------------------------------------------|

E|-----------------------------------------------------|
B|-7b---x-7-5b---x-5-7br---7br---7br---7br-------------|
G|-7b---x-7-5b---x-5-7br---7br---7br---7br-------------|
D|-7b---x-7-5b---x-5-7br---7br---7br---7br-------------|
A|-----------------------------------------------------|
E|-----------------------------------------------------|

E|-----------------------------------------------------|
B|-----------------------------------------------------|
G|-----------------------------------------------------|
D|-0-----5-6-5----3--0-----5-6-5-3---------------------|
A|-0-----5-6-5----3--0-----5-6-5-3---------------------|
E|-0-----5-6-5----3--0-----5-6-5-3---------------------|

E|-----------------------------------------------------|
B|-----------------------------------------------------|
G|-----------------------------------------------------|
D|-0-----5-6-5---0---3---5---6---7---------------------|
A|-0-----5-6-5---0---3---5---6---7---------------------|
E|-0-----5-6-5---0---3---5---6---7---------------------|


[Primeira Parte]

(Guitarra 1)
E|-----------------------------------------------------|
B|-----------------------------------------------------|
G|-----------------------------------------------------|
D|-----------------------------------------------------|
A|---5---5---5-0h3---5---5---5-0h3---5---5---5-0h3-----|
E|-0---0---0-------0---0---0-------0---0---0-----------|

E|-----------------------------------------------------|
B|-----------------------------------------------------|
G|-----------------------------------------------------|
D|-5---x-5-3---x-3-------------------------------------|
A|-5---x-5-3---x-3-------------------------------------|
E|-5---x-5-3---x-3-------------------------------------|

E|-----------------------------------------------------|
B|-----------------------------------------------------|
G|-----------------------------------------------------|
D|-----------------------------------------------------|
A|---5---5---5-0h3---5---5---5-0h3---5---5---5-0h3-----|
E|-0---0---0-------0---0---0-------0---0---0-----------|

E|-----------------------------------------------------|
B|-----------------------------------------------------|
G|-----------------------------------------------------|
D|-3---5---6---7---------------------------------------|
A|-3---5---6---7---------------------------------------|
E|-3---5---6---7---------------------------------------|

(Guitarra 2)
E|-----------------------------------------------------|
B|-----------------------------------------------------|
G|-----5-----------------------------------------------|
D|---3----------5---x-5-3---x-3------------------------|
A|-5------------5---x-5-3---x-3------------------------|
E|--------------5---x-5-3---x-3------------------------|

E|-----------------------------------------------------|
B|-----------------------------------------------------|
G|-----5-----------------------------------------------|
D|---3----------3---5---6---7--------------------------|
A|-5------------3---5---6---7--------------------------|
E|--------------3---5---6---7--------------------------|

Tô chegando aí bixo
Tô chegando e é de bixo
Pode parar com essa história
De se fazer de difícil

Que eu tô, Que eu tô chegando
Tô chegando e é de bicho
Pode parar com essa marra
Pode parando com isso


[Segunda Parte]

E|---1---1---1---1---1---1---1---1---1---1---1---1-----|
B|---1---1---1---1---1---1---1---1---1---1---1---1-----|
G|-----------------------------------------------------|
D|-----------------------------------------------------|
A|-----------------------------------------------------|
E|-----------------------------------------------------|

E|-----------------------------------------------------|
B|-----------------------------------------------------|
G|-----------------------------------------------------|
D|-5---x-5-3---x-3-------------------------------------|
A|-5---x-5-3---x-3-------------------------------------|
E|-5---x-5-3---x-3-------------------------------------|

E|---1---1---1---1---1---1---1---1---1---1---1---1-----|
B|---1---1---1---1---1---1---1---1---1---1---1---1-----|
G|-----------------------------------------------------|
D|-----------------------------------------------------|
A|-----------------------------------------------------|
E|-----------------------------------------------------|
 
Não dá bobeira não
Cê tá na minha mão
Segunda-feira 
É só história pra contar
Não vem com ideia não
Não quero confusão
Mas vâmo junto 
Que hoje o bicho vai pegar


[Refrão]

(Guitarra 1)
E|-----------------------------------------------------|
B|-----------------------------------------------------|
G|-----------------------------------------------------|
D|-0---x-0-----------0---x-0---------------------------|
A|-0---x-0---0-8b~---0---x-0---0-10b~------------------|
E|-0---x-0---0-------0---x-0---0-----------------------|

E|-----------------------------------------------------|
B|-----------------------------------------------------|
G|-----------------------------------------------------|
D|-0---x-0---------x-0---1---2---3---------------------|
A|-0---x-0---0-8b~-x-0---1---2---3---------------------|
E|-0---x-0---0-----x-0---1---2---3---------------------|

E|-----------------------------------------------------|
B|-----------------------------------------------------|
G|-----------------------------------------------------|
D|-0-----5-6-5----3--0-----5-6-5-3---------------------|
A|-0-----5-6-5----3--0-----5-6-5-3---------------------|
E|-0-----5-6-5----3--0-----5-6-5-3---------------------|

E|-----------------------------------------------------|
B|-----------------------------------------------------|
G|-----------------------------------------------------|
D|-0-----5-6-5---3-x-0---1---2---3---------------------|
A|-0-----5-6-5---3-x-0---1---2---3---------------------|
E|-0-----5-6-5---3-x-0---1---2---3---------------------|

(Guitarra 2)
E|-----------------------------------------------------|
B|-7b---x-7-5b---x-5-7b---x-7-5b---x-5-----------------|
G|-7b---x-7-5b---x-5-7b---x-7-5b---x-5-----------------|
D|-7b---x-7-5b---x-5-7b---x-7-5b---x-5-----------------|
A|-----------------------------------------------------|
E|-----------------------------------------------------|

E|-----------------------------------------------------|
B|-7b---x-7-5b---x-5-7br---7br---7br---7br-------------|
G|-7b---x-7-5b---x-5-7br---7br---7br---7br-------------|
D|-7b---x-7-5b---x-5-7br---7br---7br---7br-------------|
A|-----------------------------------------------------|
E|-----------------------------------------------------|

E|-----------------------------------------------------|
B|-----------------------------------------------------|
G|-----------------------------------------------------|
D|-0-----5-6-5----3--0-----5-6-5-3---------------------|
A|-0-----5-6-5----3--0-----5-6-5-3---------------------|
E|-0-----5-6-5----3--0-----5-6-5-3---------------------|

E|-----------------------------------------------------|
B|-----------------------------------------------------|
G|-----------------------------------------------------|
D|-0-----5-6-5---3-x-0---1---2---3---------------------|
A|-0-----5-6-5---3-x-0---1---2---3---------------------|
E|-0-----5-6-5---3-x-0---1---2---3---------------------|

Chegou a Tropa de Elite
Osso duro de roer
Pega um pega geral
Também vai pegar você
Tropa de Elite
Osso duro de roer
Pega um pega geral
E também vai pegar você

(Guitarra 1)
E|-----------------------------------------------------|
B|-----------------------------------------------------|
G|-----------------------------------------------------|
D|-0---x-0-----------0---x-0---------------------------|
A|-0---x-0---0-8b~---0---x-0---0-10b~------------------|
E|-0---x-0---0-------0---x-0---0-----------------------|

E|-----------------------------------------------------|
B|-----------------------------------------------------|
G|-----------------------------------------------------|
D|-0---x-0---------x-0---1---2---3---------------------|
A|-0---x-0---0-8b~-x-0---1---2---3---------------------|
E|-0---x-0---0-----x-0---1---2---3---------------------|

E|-----------------------------------------------------|
B|-----------------------------------------------------|
G|-----------------------------------------------------|
D|-0-----5-6-5----3--0-----5-6-5-3---------------------|
A|-0-----5-6-5----3--0-----5-6-5-3---------------------|
E|-0-----5-6-5----3--0-----5-6-5-3---------------------|

E|-----------------------------------------------------|
B|-----------------------------------------------------|
G|-----------------------------------------------------|
D|-0-----5-6-5---3-0-----------------------------------|
A|-0-----5-6-5---3-0-----------------------------------|
E|-0-----5-6-5---3-0-----------------------------------|

(Guitarra 2)
E|-----------------------------------------------------|
B|-7b---x-7-5b---x-5-7b---x-7-5b---x-5-----------------|
G|-7b---x-7-5b---x-5-7b---x-7-5b---x-5-----------------|
D|-7b---x-7-5b---x-5-7b---x-7-5b---x-5-----------------|
A|-----------------------------------------------------|
E|-----------------------------------------------------|

E|-----------------------------------------------------|
B|-7b---x-7-5b---x-5-7br---7br---7br---7br-------------|
G|-7b---x-7-5b---x-5-7br---7br---7br---7br-------------|
D|-7b---x-7-5b---x-5-7br---7br---7br---7br-------------|
A|-----------------------------------------------------|
E|-----------------------------------------------------|

E|-----------------------------------------------------|
B|-----------------------------------------------------|
G|-----------------------------------------------------|
D|-0-----5-6-5----3--0-----5-6-5-3---------------------|
A|-0-----5-6-5----3--0-----5-6-5-3---------------------|
E|-0-----5-6-5----3--0-----5-6-5-3---------------------|
E|-----------------------------------------------------|
B|-----------------------------------------------------|
G|-----------------------------------------------------|
D|-0-----5-6-5---3-0-----------------------------------|
A|-0-----5-6-5---3-0-----------------------------------|
E|-0-----5-6-5---3-0-----------------------------------|

Tropa de Elite
Osso duro de roer
Pega um pega geral
Também vai pegar você
Tropa de Elite
Osso duro de roer
Pega um pega geral
E também vai pegar você


[Terceira Parte]

E|-----------------------------------------------------|
B|-----------------------------------------------------|
G|-----------------------------------------------------|
D|-3---5---6---7---------------------------------------|
A|-3---5---6---7---------------------------------------|
E|-3---5---6---7---------------------------------------|

(Guitarra 1)
E|-----------------------------------------------------|
B|-----------------------------------------------------|
G|-----------------------------------------------------|
D|-----------------------------------------------------|
A|---5---5---5-0h3---5---5---5-0h3---5---5---5-0h3-----|
E|-0---0---0-------0---0---0-------0---0---0-----------|

E|-----------------------------------------------------|
B|-----------------------------------------------------|
G|-----------------------------------------------------|
D|-5---x-5-3---x-3-------------------------------------|
A|-5---x-5-3---x-3-------------------------------------|
E|-5---x-5-3---x-3-------------------------------------|

E|-----------------------------------------------------|
B|-----------------------------------------------------|
G|-----------------------------------------------------|
D|-----------------------------------------------------|
A|---5---5---5-0h3---5---5---5-0h3---5---5---5-0h3-----|
E|-0---0---0-------0---0---0-------0---0---0-----------|

E|-----------------------------------------------------|
B|-----------------------------------------------------|
G|-----------------------------------------------------|
D|-3---5---6---7---------------------------------------|
A|-3---5---6---7---------------------------------------|
E|-3---5---6---7---------------------------------------|

(Guitarra 2)
E|-----------------------------------------------------|
B|-----------------------------------------------------|
G|-----5-----------------------------------------------|
D|---3----------5---x-5-3---x-3------------------------|
A|-5------------5---x-5-3---x-3------------------------|
E|--------------5---x-5-3---x-3------------------------|

E|-----------------------------------------------------|
B|-----------------------------------------------------|
G|-----5-----------------------------------------------|
D|---3----------3---5---6---7--------------------------|
A|-5------------3---5---6---7--------------------------|
E|--------------3---5---6---7--------------------------|

Chega prá lá, chega prá lá
Chega pra lá
Tô chegando e vou passar
Cheguei de repente
Vai ser diferente
Sai da minha frente
Sai da minha frente, meu irmão
Não, não vem com isso não
Tô chegando e é de ladrão
Porque quando eu pego
Eu levo pela mão
Não mando recado
Eu vou na contramão


[Quarta Parte]

E|---1---1---1---1---1---1---1---1---1---1---1---1-----|
B|---1---1---1---1---1---1---1---1---1---1---1---1-----|
G|-----------------------------------------------------|
D|-----------------------------------------------------|
A|-----------------------------------------------------|
E|-----------------------------------------------------|

E|-----------------------------------------------------|
B|-----------------------------------------------------|
G|-----------------------------------------------------|
D|-5---x-5-3---x-3-------------------------------------|
A|-5---x-5-3---x-3-------------------------------------|
E|-5---x-5-3---x-3-------------------------------------|

E|---1---1---1---1---1---1---1---1---1---1---1---1-----|
B|---1---1---1---1---1---1---1---1---1---1---1---1-----|
G|-----------------------------------------------------|
D|-----------------------------------------------------|
A|-----------------------------------------------------|
E|-----------------------------------------------------|

E|-----------------------------------------------------|
B|-----------------------------------------------------|
G|-----------------------------------------------------|
D|-7---6---5---3---------------------------------------|
A|-7---6---5---3---------------------------------------|
E|-7---6---5---3---------------------------------------|

Não dá bobeira não
Cê tá na minha mão
Segunda-feira
É só história pra contar
Não vem com ideia não
Não quero confusão
Mas vamo junto que hoje
O bicho vai pegar


[Ponte]

(Guitarra 1)
E|-----------------------------------------------------|
B|-----------------------------------------------------|
G|-5-7------5-7------5-7-------------------------------|
D|-5-7------5-7------5-7-------------------------------|
A|-3-5------3-5------3-5-------------------------------|
E|-----------------------------------------------------|

E|--10--10--10--10--10--10--10--10--10--10--10--10--10-|
B|--10--10--10--10--10--10--10--10--10--10--10--10--10-|
G|-----------------------------------------------------|
D|-----------------------------------------------------|
A|-----------------------------------------------------|
E|-----------------------------------------------------|

  H.A
E|-----------------------------------------------------|
B|-----------------------------------------------------|
G|-7~~-------------------------------------------------|
D|-----------------------------------------------------|
A|-----------------------------------------------------|
E|-----------------------------------------------------|

(Guitarra 2)
E|-----------------------------------------------------|
B|-----------------------------------------------------|
G|-----------------------------------------------------|
D|-------------5---------------5-----------------------|
A|-5-5-7-5-8-5---8-5-5-7-5-8-5---8---------------------|
E|-----------------------------------------------------|

E|-----------------------------------------------------|
B|-----------------------------------------------------|
G|-----------------------------------------------------|
D|-------------5---------------5-----------------------|
A|-5-5-7-5-8-5---8-5-5-7-5-8-5---8---------------------|
E|-----------------------------------------------------|

E|-----------------------------------------------------|
B|-----------------------------------------------------|
G|-----------------------------------------------------|
D|-------------5---------------5-----------------------|
A|-5-5-7-5-8-5---8-5-5-7-5-8-5---8---------------------|
E|-----------------------------------------------------|

E|-----------------------------------------------------|
B|-----------------------------------------------------|
G|-----------------------------------------------------|
D|-------------5---------------5-----------------------|
A|-5-5-7-5-8-5---8-5-5-7-5-8-5---8---------------------|
E|-----------------------------------------------------|

Tem dia que a criança chora
Mas a mãe não escuta
E você nada pra fora
Mas a vala te puxa
Hoje pode ser meu dia
Pode até ser o seu
A diferença é que eu vou embora
Mas eu levo o que é meu


[Refrão]

(Guitarra 1)
E|-----------------------------------------------------|
B|-----------------------------------------------------|
G|-----------------------------------------------------|
D|-0---x-0-----------0---x-0---------------------------|
A|-0---x-0---0-8b~---0---x-0---0-10b~------------------|
E|-0---x-0---0-------0---x-0---0-----------------------|

E|-----------------------------------------------------|
B|-----------------------------------------------------|
G|-----------------------------------------------------|
D|-0---x-0---------x-0---1---2---3---------------------|
A|-0---x-0---0-8b~-x-0---1---2---3---------------------|
E|-0---x-0---0-----x-0---1---2---3---------------------|

E|-----------------------------------------------------|
B|-----------------------------------------------------|
G|-----------------------------------------------------|
D|-0-----5-6-5----3--0-----5-6-5-3---------------------|
A|-0-----5-6-5----3--0-----5-6-5-3---------------------|
E|-0-----5-6-5----3--0-----5-6-5-3---------------------|

E|-----------------------------------------------------|
B|-----------------------------------------------------|
G|-----------------------------------------------------|
D|-0-----5-6-5---3-x-0---1---2---3---------------------|
A|-0-----5-6-5---3-x-0---1---2---3---------------------|
E|-0-----5-6-5---3-x-0---1---2---3---------------------|

(Guitarra 2)
E|-----------------------------------------------------|
B|-7b---x-7-5b---x-5-7b---x-7-5b---x-5-----------------|
G|-7b---x-7-5b---x-5-7b---x-7-5b---x-5-----------------|
D|-7b---x-7-5b---x-5-7b---x-7-5b---x-5-----------------|
A|-----------------------------------------------------|
E|-----------------------------------------------------|

E|-----------------------------------------------------|
B|-7b---x-7-5b---x-5-7br---7br---7br---7br-------------|
G|-7b---x-7-5b---x-5-7br---7br---7br---7br-------------|
D|-7b---x-7-5b---x-5-7br---7br---7br---7br-------------|
A|-----------------------------------------------------|
E|-----------------------------------------------------|

E|-----------------------------------------------------|
B|-----------------------------------------------------|
G|-----------------------------------------------------|
D|-0-----5-6-5----3--0-----5-6-5-3---------------------|
A|-0-----5-6-5----3--0-----5-6-5-3---------------------|
E|-0-----5-6-5----3--0-----5-6-5-3---------------------|

E|-----------------------------------------------------|
B|-----------------------------------------------------|
G|-----------------------------------------------------|
D|-0-----5-6-5---3-x-0---1---2---3---------------------|
A|-0-----5-6-5---3-x-0---1---2---3---------------------|
E|-0-----5-6-5---3-x-0---1---2---3---------------------|

Tropa de Elite
Osso duro de roer
Pega um pega geral
Também vai pegar você
Tropa de Elite
Osso duro de roer
Pega um pega geral
E também vai pegar você


(Guitarra 1)
E|-----------------------------------------------------|
B|-----------------------------------------------------|
G|-----------------------------------------------------|
D|-0---x-0-----------0---x-0---------------------------|
A|-0---x-0---0-8b~---0---x-0---0-10b~------------------|
E|-0---x-0---0-------0---x-0---0-----------------------|

E|-----------------------------------------------------|
B|-----------------------------------------------------|
G|-----------------------------------------------------|
D|-0---x-0---------x-0---1---2---3---------------------|
A|-0---x-0---0-8b~-x-0---1---2---3---------------------|
E|-0---x-0---0-----x-0---1---2---3---------------------|

E|-----------------------------------------------------|
B|-----------------------------------------------------|
G|-----------------------------------------------------|
D|-0-----5-6-5----3--0-----5-6-5-3---------------------|
A|-0-----5-6-5----3--0-----5-6-5-3---------------------|
E|-0-----5-6-5----3--0-----5-6-5-3---------------------|

E|-----------------------------------------------------|
B|-----------------------------------------------------|
G|-----------------------------------------------------|
D|-0-----5-6-5---3-x-0---1---2---3---------------------|
A|-0-----5-6-5---3-x-0---1---2---3---------------------|
E|-0-----5-6-5---3-x-0---1---2---3---------------------|

(Guitarra 2)
E|-----------------------------------------------------|
B|-7b---x-7-5b---x-5-7b---x-7-5b---x-5-----------------|
G|-7b---x-7-5b---x-5-7b---x-7-5b---x-5-----------------|
D|-7b---x-7-5b---x-5-7b---x-7-5b---x-5-----------------|
A|-----------------------------------------------------|
E|-----------------------------------------------------|

E|-----------------------------------------------------|
B|-7b---x-7-5b---x-5-7br---7br---7br---7br-------------|
G|-7b---x-7-5b---x-5-7br---7br---7br---7br-------------|
D|-7b---x-7-5b---x-5-7br---7br---7br---7br-------------|
A|-----------------------------------------------------|
E|-----------------------------------------------------|

E|-----------------------------------------------------|
B|-----------------------------------------------------|
G|-----------------------------------------------------|
D|-0-----5-6-5----3--0-----5-6-5-3---------------------|
A|-0-----5-6-5----3--0-----5-6-5-3---------------------|
E|-0-----5-6-5----3--0-----5-6-5-3---------------------|

E|-----------------------------------------------------|
B|-----------------------------------------------------|
G|-----------------------------------------------------|
D|-0-----5-6-5---3-x-0---1---2---3---------------------|
A|-0-----5-6-5---3-x-0---1---2---3---------------------|
E|-0-----5-6-5---3-x-0---1---2---3---------------------|

Tropa de Elite
Osso duro de roer
Pega um pega geral
Também vai pegar você
Tropa de Elite
Osso duro de roer
Pega um pega geral
E também vai pegar você


[Ponte]

(Guitarra 2)
E|-----------------------------------------------------|
B|-----------------------------------------------------|
G|-----------------------------------------------------|
D|-------------5---------------5-----------------------|
A|-5-5-7-5-8-5---8-5-5-7-5-8-5---8---------------------|
E|-----------------------------------------------------|

E|-----------------------------------------------------|
B|-----------------------------------------------------|
G|-----------------------------------------------------|
D|-------------5---------------5-----------------------|
A|-5-5-7-5-8-5---8-5-5-7-5-8-5---8---------------------|
E|-----------------------------------------------------|

(Guitarra 1 e 2)
E|-----------------------------------------------------|
B|-----------------------------------------------------|
G|-----------------------------------------------------|
D|-0--0--0-0-0------0--0-0-0------0--0-0-0-------------|
A|-0--0--0-0-0------0--0-0-0------0--0-0-0-------------|
E|-0--0--0-0-0------0--0-0-0------0--0-0-0-------------|

Muro de concreto
Bom de derrubar
É Tihuana
O pau vai quebrar


[Refrão]

(Guitarra 1)
E|-----------------------------------------------------|
B|-----------------------------------------------------|
G|-----------------------------------------------------|
D|-0---x-0-----------0---x-0---------------------------|
A|-0---x-0---0-8b~---0---x-0---0-10b~------------------|
E|-0---x-0---0-------0---x-0---0-----------------------|

E|-----------------------------------------------------|
B|-----------------------------------------------------|
G|-----------------------------------------------------|
D|-0---x-0---------x-0---1---2---3---------------------|
A|-0---x-0---0-8b~-x-0---1---2---3---------------------|
E|-0---x-0---0-----x-0---1---2---3---------------------|

E|-----------------------------------------------------|
B|-----------------------------------------------------|
G|-----------------------------------------------------|
D|-0-----5-6-5----3--0-----5-6-5-3---------------------|
A|-0-----5-6-5----3--0-----5-6-5-3---------------------|
E|-0-----5-6-5----3--0-----5-6-5-3---------------------|

E|-----------------------------------------------------|
B|-----------------------------------------------------|
G|-----------------------------------------------------|
D|-0-----5-6-5---3-x-0---1---2---3---------------------|
A|-0-----5-6-5---3-x-0---1---2---3---------------------|
E|-0-----5-6-5---3-x-0---1---2---3---------------------|

(Guitarra 2)
E|-----------------------------------------------------|
B|-7b---x-7-5b---x-5-7b---x-7-5b---x-5-----------------|
G|-7b---x-7-5b---x-5-7b---x-7-5b---x-5-----------------|
D|-7b---x-7-5b---x-5-7b---x-7-5b---x-5-----------------|
A|-----------------------------------------------------|
E|-----------------------------------------------------|

E|-----------------------------------------------------|
B|-7b---x-7-5b---x-5-7br---7br---7br---7br-------------|
G|-7b---x-7-5b---x-5-7br---7br---7br---7br-------------|
D|-7b---x-7-5b---x-5-7br---7br---7br---7br-------------|
A|-----------------------------------------------------|
E|-----------------------------------------------------|

E|-----------------------------------------------------|
B|-----------------------------------------------------|
G|-----------------------------------------------------|
D|-0-----5-6-5----3--0-----5-6-5-3---------------------|
A|-0-----5-6-5----3--0-----5-6-5-3---------------------|
E|-0-----5-6-5----3--0-----5-6-5-3---------------------|

E|-----------------------------------------------------|
B|-----------------------------------------------------|
G|-----------------------------------------------------|
D|-0-----5-6-5---3-x-0---1---2---3---------------------|
A|-0-----5-6-5---3-x-0---1---2---3---------------------|
E|-0-----5-6-5---3-x-0---1---2---3---------------------|

Tropa de Elite
Osso duro de roer
Pega um pega geral
Também vai pegar você
Tropa de Elite
Osso duro de roer
Pega um pega geral
E também vai pegar você


(Guitarra 1)
E|-----------------------------------------------------|
B|-----------------------------------------------------|
G|-----------------------------------------------------|
D|-0---x-0-----------0---x-0---------------------------|
A|-0---x-0---0-8b~---0---x-0---0-10b~------------------|
E|-0---x-0---0-------0---x-0---0-----------------------|

E|-----------------------------------------------------|
B|-----------------------------------------------------|
G|-----------------------------------------------------|
D|-0---x-0---------x-0---1---2---3---------------------|
A|-0---x-0---0-8b~-x-0---1---2---3---------------------|
E|-0---x-0---0-----x-0---1---2---3---------------------|

E|-----------------------------------------------------|
B|-----------------------------------------------------|
G|-----------------------------------------------------|
D|-0-----5-6-5----3--0-----5-6-5-3---------------------|
A|-0-----5-6-5----3--0-----5-6-5-3---------------------|
E|-0-----5-6-5----3--0-----5-6-5-3---------------------|

E|-----------------------------------------------------|
B|-----------------------------------------------------|
G|-----------------------------------------------------|
D|-0-----5-6-5---3-------------------------------------|
A|-0-----5-6-5---3-------------------------------------|
E|-0-----5-6-5---3-------------------------------------|

(Guitarra 2)
E|-----------------------------------------------------|
B|-7b---x-7-5b---x-5-7b---x-7-5b---x-5-----------------|
G|-7b---x-7-5b---x-5-7b---x-7-5b---x-5-----------------|
D|-7b---x-7-5b---x-5-7b---x-7-5b---x-5-----------------|
A|-----------------------------------------------------|
E|-----------------------------------------------------|

E|-----------------------------------------------------|
B|-7b---x-7-5b---x-5-7br---7br---7br---7br-------------|
G|-7b---x-7-5b---x-5-7br---7br---7br---7br-------------|
D|-7b---x-7-5b---x-5-7br---7br---7br---7br-------------|
A|-----------------------------------------------------|
E|-----------------------------------------------------|

E|-----------------------------------------------------|
B|-----------------------------------------------------|
G|-----------------------------------------------------|
D|-0-----5-6-5----3--0-----5-6-5-3---------------------|
A|-0-----5-6-5----3--0-----5-6-5-3---------------------|
E|-0-----5-6-5----3--0-----5-6-5-3---------------------|

E|-----------------------------------------------------|
B|-----------------------------------------------------|
G|-----------------------------------------------------|
D|-0-----5-6-5---3-------------------------------------|
A|-0-----5-6-5---3-------------------------------------|
E|-0-----5-6-5---3-------------------------------------|

Tropa de Elite
Osso duro de roer
Pega um pega geral
Também vai pegar você
Tropa de Elite
Osso duro de roer
Pega um pega geral
E Também vai pegar você


E|-----------------------------------------------------|
B|-----------------------------------------------------|
G|-----------------------------------------------------|
D|-x-0---1---2---3-------------------------------------|
A|-x-0---1---2---3-------------------------------------|
E|-x-0---1---2---3-------------------------------------|

E|-----------------------------------------------------|
B|-----------------------------------------------------|
G|-----------------------------------------------------|
D|-x-0---1---2---3-------------------------------------|
A|-x-0---1---2---3-------------------------------------|
E|-x-0---1---2---3-------------------------------------|

E|-----------------------------------------------------|
B|-----------------------------------------------------|
G|-----------------------------------------------------|
D|-x-0---1---2---3-------------------------------------|
A|-x-0---1---2---3-------------------------------------|
E|-x-0---1---2---3-------------------------------------|

E|-----------------------------------------------------|
B|-----------------------------------------------------|
G|-----------------------------------------------------|
D|-x-0---1---2---3-------------------------------------|
A|-x-0---1---2---3-------------------------------------|
E|-x-0---1---2---3-------------------------------------|


[Final]

E|-----------------------------------------------------|
B|-----------------------------------------------------|
G|-----------------------------------------------------|
D|-0--0--0-0-0------0--0-0-0--0------0-----------------|
A|-0--0--0-0-0------0--0-0-0--0------0-----------------|
E|-0--0--0-0-0------0--0-0-0--0------0-----------------|

Tá de bobeira
exibições 1.283.825
Acordes para:
    Composição: Tihuana Colaboração e revisão:

    0 comentários

    mostrar mais comentários

    Conseguiu tocar?

    10 tocaram 2 ainda não

    Grave um vídeo tocando Tropa De Elite e mande pra gente!

    00:00 / 00:00
    outros vídeos desta música
    repetir qualidade Automático
    Outros vídeos desta música
    00:00 / 00:00
    Automático
    Capítulos
    • Tocando a música
    • Apresentação / Equipamentos
    • Afinação
    • Dicas iniciais e introdução
    • Tocando introdução
    • Ensinando introdução - Guitarra 1
    • Ensinando introdução - Guitarra 2
    • Dicas primeira parte
    • Tocando primeira parte
    • Ensinando primeira parte - Guitarra 1
    • Ensinando primeira parte - Guitarra 2
    • Dicas segunda parte
    • Tocando segunda parte
    • Ensinando segunda parte
    • Dicas refrão
    • Tocando refrão
    • Ensinando refrão - Guitarra 1
    • Ensinando refrão - Guitarra 2
    • Dicas repetições e ponte
    • Tocando repetições e ponte
    • Ensinando variações na terceira e quarta parte
    • Ensinando ponte - Guitarra 1
    • Ensinando ponte - Guitarra 2
    • Dicas refrão e ponte
    • Tocando refrão e ponte
    • Ensinando ponte - Guitarra 2
    • Ensinando ponte - Guitarra 1 e 2
    • Dicas refrão e final da música
    • Tocando refrão e final da música
    • Ensinando final
    • Encerramento
    OK