Cifra Club

Calma

Tim Bernardes

Cifra: Principal (violão e guitarra)
Selo Cifra Club: esta cifra foi revisada para atender aos critérios oficiais da nossa Equipe de Qualidade.
tom: Bb
F                Bb
  Calma, calma, meu amor
F           Bb
  Estou aqui
Am        Bb   Am         Bb
Sempre estive, não vai mudar
Am                  Bb
Eu vou pensar em você
Am            Bb
Às vezes lembre
    Gm  Dm  Gm  Dm  Bb
De mim

[Riff]

E|-8--------------------|
B|--10--10--------------|
G|----10--10------------|
D|----------10----------|
A|----------------------|
E|----------------------|

E|--8---8---8---8---1---|
B|--10--10--10--10--3---|
G|--10--10--10--10--3---|
D|--10--10--10--10--3---|
A|----------------------|
E|----------------------|

F                Bb
  Calma, calma, meu amor
F           Bb
  Olha nós dois
Am     Bb    Am          Bb
Desgastados, sem se querer
Am               Bb
A gente se melhorou
Am            Bb       Gm  Dm  Gm  Dm  Bb
Pra que por tudo a perder?

F                Bb
  Calma, calma, meu amor
F            Bb
  Pra me acalmar
Am       Bb     Am            Bb
 Dói no fundo, quando vai passar?
Am                     Bb
Deixa eu deitar com você
Am        Bb     Gm  Dm  Gm  Dm  Bb 
Só durmo até amanhã

F                Bb
  Calma, calma, meu amor
F                Bb
  Olha o que eu fiz
Am        Bb   Am           Bb
Vai tranquila, hoje eu guardei
Am                 Bb
Tudo de bom entre nós
Am         Bb         Gm  F  Gm  F  Gm  F
Pra gente não se esquecer

[Final]

E|-8--------------------|
B|--10--10--------------|
G|----10--10------------|
D|----------10----------|
A|----------------------|
E|----------------------|

E|--8---8---------------|
B|--10--10--------------|
G|--10--10--------------|
D|--10--10--------------|
A|----------------------|
E|----------------------|
00:00 / 00:00
Outros vídeos desta música
Repetir
Outros vídeos desta música
17.167 exibições
    • ½ Tom
    • A
    • Bb
    • B
    • C
    • Db
    • D
    • Eb
    • E
    • F
    • F#
    • G
    • Ab
  • Adicionar à lista

Afinação da cifra

Afinador online

    0 comentários

    Ver todos os comentários

    Entre para o Cifra Club PRO

    Tenha acesso a benefícios exclusivos no App e no Site

    • Chega de anúncios

    • Mais recursos no app do Afinador

    • Atendimento Prioritário

    • Aumente seu limite de lista

    • Ajude a produzir mais conteúdo

    00:00 / 00:00

    Cifra Club Pro

    Aproveite o Cifra Club com benefícios exclusivos e sem anúncios
    Cifra Club Pro
    Aproveite o Cifra Club com benefícios exclusivos e sem anúncios
    OK