Cifra Club

Era o Fim

Tim Bernardes

Cifra: Principal (violão e guitarra)
Selo Cifra Club: esta cifra foi revisada para atender aos critérios oficiais da nossa Equipe de Qualidade.
tom: A
Cm         Cm/F#
Era o fim, tava ali
G9              G9/F#
Debaixo do meu nariz
G6/E         F#4
Como foi que eu não vi?
F6                         G6
Como é que eu não percebi?

Cm      Cm/F#
Ela fez parecer
G9               G9/F#
Que nada ia acontecer
G6/E      F#4
Era tarde demais
F6                     G6
Na hora que eu reparei

Pm
E|3-3-3-3-3-3-3-3-3-3-3-3-3-3-3-3-3-3-3-3-3----|
B|6-6-6-6-6-6-5-5-5-5-5-5-5-5-5-5-5-5-5-3-3----|
G|3-3-3-3-3-3-3-3-3-3-3-3-3-3-3-3-3-3-3-3-3----|
D|3-3-3-3-3-3-3-3-3-3-3-3-3-3-3-3-3-3-3-3-3----|
A|5-5-5-5-5-5-5-5-5-5-5-5-5-5-5-3-3-3-3-3-3----|
E|3-3-3-3-3-3-3-3-3-3-3-3-3-3-3-------------3-2|

Eu ia tomar cuidado pra não me entregar

                           Gm11
Pm
E|1-1-1-1-1-1-1-1-1-1-1-1-------------------|
B|4-4-4-4-4-4-3-3-3-3-3-3----1-----1h3-1----|
G|1-1-1-1-1-1-1-1-1-1-1-1----3---1-----3----|
D|1-1-1-1-1-1-1-1-1-1-1-1----3-3-------3----|
A|3-3-3-3-3-3-3-3-3-3-3-3-------------------|
E|-------------------------3-3---------3-3-2|

Eu prometi que não ia mais me apaixonar
F#6
Nunca mais ia cantar uma canção de amor

Fm7M
Eu te amo
Não
Eu te amo

       F
E|-------------------------------------|
B|--1------1-----1------1-----1-----1--|
G|----1------1-----1------1-----1-----1|
D|-------------3------------3----------|
A|------3-------------3-----------3----|
E|1------------------------------------|

F   Dm6/F
Não

       Dm6/F
E|-------------------------------------|
B|--0------0-----0------0-----0-----0--|
G|----0------0-----0------0-----0-----0|
D|-------------0------------0----------|
A|------0-------------0-----------0----|
E|1------------------------------------|

( Dm6/F )

Cm
Só pra mim
Cm/F#
Num altar
G9              G9/F#
Achei que era até o fim
G6/E       F#4
Eu chorei, quando eu vi
F6                    G6
Que não era bem assim

Cm        Cm/F#
Ela nunca sentiu
G9                 G9/F#
Metade do que eu senti
G6/E       F#4
Eu tentei, me matei
F6                    G6
Mas eu nunca consegui

Pm
E|3-3-3-3-3-3-3-3-3-3-3-3-3-3-3-3-3-3-3-3-3----|
B|6-6-6-6-6-6-5-5-5-5-5-5-5-5-5-5-5-5-5-3-3----|
G|3-3-3-3-3-3-3-3-3-3-3-3-3-3-3-3-3-3-3-3-3----|
D|3-3-3-3-3-3-3-3-3-3-3-3-3-3-3-3-3-3-3-3-3----|
A|5-5-5-5-5-5-5-5-5-5-5-5-5-5-5-3-3-3-3-3-3----|
E|------------------------------------------3-2|

Tudo que tinha no mundo eu resolvi te dar

                           Gm11
Pm
E|1-1-1-1-1-1-1-1-1-1-1-1-------------------|
B|4-4-4-4-4-4-3-3-3-3-3-3----1-----1h3-1----|
G|1-1-1-1-1-1-1-1-1-1-1-1----3---1-----3----|
D|1-1-1-1-1-1-1-1-1-1-1-1----3-3-------3----|
A|3-3-3-3-3-3-3-3-3-3-3-3-------------------|
E|-------------------------3-3---------3-3-2|

Eu perdi minha cabeça, eu dei meu coração
F#6
E eu venderia a alma pra te esquecer

Fm7M
Eu te amo
Não
Eu te amo

       F
E|-------------------------------------|
B|--1------1-----1------1-----1-----1--|
G|----1------1-----1------1-----1-----1|
D|-------------3------------3----------|
A|------3-------------3-----------3----|
E|1------------------------------------|

F   Dm6/F
Não

       Dm6/F
E|-------------------------------------|
B|--0------0-----0------0-----0-----0--|
G|----0------0-----0------0-----0-----0|
D|-------------0------------0----------|
A|------0-------------0-----------0----|
E|1------------------------------------|

( Dm6/F  F  Dm6/F )
00:00 / 00:00
Outros vídeos desta música
Repetir
Outros vídeos desta música
6.604 exibições
    • ½ Tom
    • A
    • Bb
    • B
    • C
    • Db
    • D
    • Eb
    • E
    • F
    • F#
    • G
    • Ab
  • Adicionar à lista

Afinação da cifra

Afinador online

    0 comentários

    Ver todos os comentários

    Entre para o Cifra Club PRO

    Tenha acesso a benefícios exclusivos no App e no Site

    • Chega de anúncios

    • Mais recursos no app do Afinador

    • Atendimento Prioritário

    • Aumente seu limite de lista

    • Ajude a produzir mais conteúdo

    00:00 / 00:00

    Cifra Club Pro

    Aproveite o Cifra Club com benefícios exclusivos e sem anúncios
    Cifra Club Pro
    Aproveite o Cifra Club com benefícios exclusivos e sem anúncios
    OK