Cifra Club

Mistificar

Tim Bernardes

Cifra: Principal (violão e guitarra)
Selo Cifra Club: esta cifra foi revisada para atender aos critérios oficiais da nossa Equipe de Qualidade.
tom: D
[Intro] D7M  Em7
        D7M  Em7

[Tab - Intro]

[Parte 1 De 2]

   D7M  Em7

E|-5/7---5-5---5/7--5----5-----3-----3---3----3----3------|
B|-7-----7-7---7----5----5-----3-----3---5----5----3------|
G|-6-----------6----6--6---6---4---4----4----4--------4---|
D|-0-----------0----0----------0-------------------0------|
A|--------------------------------------------------------|
E|--------------------------------------------------------|

[Parte 2 De 2]

  D7M  Em7

E|-5/7---5-5---5/7--5----5-----3-----3---3----3----3------|
B|-7-----7-7---7----5----5-----3-----3---5----5----3------|
G|-6-----------6----6--6---6---4---4----4----4--------4---|
D|-0-----------0----0----------0-------------------0------|
A|--------------------------------------------------------|
E|--------------------------------------------------------|

[Primeira Parte]

D7M         Fm7   F#m7   G6
Tempo de misti____fi_____car
                     Em7
É mais que o próprio sonho
  D/F#         G
É por poder sonhar
 G6 
Amor

[Segunda Parte]

D7M       Fm7  F#m7  G6
O sentido vai  pin___tar
             Em7
A ilusão faz parte
   D/F#       G
De se apaixonar
  Em7        D/F#
A cara e a coragem
      G
Que a esperança dá

[Refrão]

[Tab - Refrão]

[Parte 1 De 5]

  G7M                            D/F#            E4(7)
E|------------------------------------------------------------|
B|------12---12---------12---12-------10----10-------10--10---|
G|------11---11---------11---11-------11----11--------7---7---|
D|----12---12---------12---12-------12----12-------9----9-----|
A|-10-----------12-10----------10-9------------9-7----------7-|
E|------------------------------------------------------------|

[Parte 2 De 5]

  G7M                            D/F#            E4(7)
E|------------------------------------------------------------|
B|------12---12---------12---12-------10----10-------10--10---|
G|------11---11---------11---11-------11----11--------7---7---|
D|----12---12---------12---12-------12----12-------9----9-----|
A|-10-----------12-10----------10-9------------9-7----------7-|
E|------------------------------------------------------------|

[Parte 3 De 5]

  G7M                           D/F#            E4(7)
E|------------------------------------------------------------|
B|------12---12---------12---12-------10----10-------10--10---|
G|------11---11---------11---11-------11----11--------7---7---|
D|----12---12---------12---12-------12----12-------9----9-----|
A|-10-----------12-10----------10-9------------9-7----------7-|
E|------------------------------------------------------------|

[Parte 4 De 5]

  G7M                          D/F#            E4(7)
E|------------------------------------------------------------|
B|------12---12---------12---12-------10----10-------10---10--|
G|------11---11---------11---11-------11----11--------7----7--|
D|----12---12---------12---12-------12----12--------9----9----|
A|-10-----------12-10----------10-9------------9-7------------|
E|------------------------------------------------------------|

[Parte 5 De 5]

    A6/E     A
E|--2---2-----------------------------------------------------|
B|--2--2-2---2---2--------------------------------------------|
G|--2-2------2--2-2-------------------------------------------|
D|-----------2-2---2------------------------------------------|
A|--0--------0------------------------------------------------|
E|------------------------------------------------------------|

G7M  D/F#      E4(7)     G7M
     Ó, grande Sol no universo
D/F#    E4(7)   G7M
Cósmica luz do luar
D/F#      E4(7)    G7M
Meu manto azul moderno
D/F#       E4(7)    A6/E  A
Fundo mais fundo do ma____r

[Terceira Parte]

D7M        Fm7  F#m7  G6
Hora de deixar  ro____lar
                 Em7
De estar desprevenido
      D/F#         G   
Pra o que pode chegar
 G6
Amor

[Quarta Parte]

D7M         Fm7  F#m7  G6
A visão vai re____ve___lar
               Em7
O que pode ser visto
     D/F#            G
Pra além do que está lá
   Em7         D/F#
Eu acredito em Beatles
    G
Eu quero acreditar


[Refrão]

[Tab - Refrão]

[Parte 1 De 5]

  G7M                            D/F#            E4(7)
E|------------------------------------------------------------|
B|------12---12---------12---12-------10----10-------10--10---|
G|------11---11---------11---11-------11----11--------7---7---|
D|----12---12---------12---12-------12----12-------9----9-----|
A|-10-----------12-10----------10-9------------9-7----------7-|
E|------------------------------------------------------------|

[Parte 2 De 5]

  G7M                            D/F#            E4(7)
E|------------------------------------------------------------|
B|------12---12---------12---12-------10----10-------10--10---|
G|------11---11---------11---11-------11----11--------7---7---|
D|----12---12---------12---12-------12----12-------9----9-----|
A|-10-----------12-10----------10-9------------9-7----------7-|
E|------------------------------------------------------------|

[Parte 3 De 5]

  G7M                           D/F#            E4(7)
E|------------------------------------------------------------|
B|------12---12---------12---12-------10----10-------10--10---|
G|------11---11---------11---11-------11----11--------7---7---|
D|----12---12---------12---12-------12----12-------9----9-----|
A|-10-----------12-10----------10-9------------9-7----------7-|
E|------------------------------------------------------------|

[Parte 4 De 5]

  G7M                          D/F#            E4(7)
E|------------------------------------------------------------|
B|------12---12---------12---12-------10----10-------10--10---|
G|------11---11---------11---11-------11----11--------7---7---|
D|----12---12---------12---12-------12----12-------9----9-----|
A|-10-----------12-10----------10-9------------9-7------------|
E|------------------------------------------------------------|

[Parte 5 De 5]

    A6/E     A
E|--2---2-----------------------------------------------------|
B|--2--2-2---2---2--------------------------------------------|
G|--2-2------2--2-2-------------------------------------------|
D|-----------2-2---2------------------------------------------|
A|--0--------0------------------------------------------------|
E|------------------------------------------------------------|

G7M  D/F#       E4(7)     G7M
     Ó, grande Sol no universo
D/F#    E4(7)    G7M
Cósmica luz do luar
D/F#      E4(7)   G7M
Meu manto azul moderno
D/F#       E4(7)    A6/E  A
Fundo mais fundo do ma____r

[Final]

( D7M  Fm7  F#m7  G6 )
( Em7  D/F#  G  D/F# )
( Em7  D/F#  G  D/F# ) 

 G6
Amor
00:00 / 00:00
Outros vídeos desta música
Repetir
Outros vídeos desta música
1.999 exibições
    • ½ Tom
    • A
    • Bb
    • B
    • C
    • Db
    • D
    • Eb
    • E
    • F
    • F#
    • G
    • Ab
  • Adicionar à lista

Afinação da cifra

Afinador online

    0 comentários

    Ver todos os comentários

    Entre para o Cifra Club PRO

    Tenha acesso a benefícios exclusivos no App e no Site

    • Chega de anúncios

    • Mais recursos no app do Afinador

    • Atendimento Prioritário

    • Aumente seu limite de lista

    • Ajude a produzir mais conteúdo

    00:00 / 00:00

    Cifra Club Pro

    Aproveite o Cifra Club com benefícios exclusivos e sem anúncios
    Cifra Club Pro
    Aproveite o Cifra Club com benefícios exclusivos e sem anúncios
    OK