Cifra Club

Não

Tim Bernardes

Cifra: Principal (violão e guitarra)
Selo Cifra Club: esta cifra foi revisada para atender aos critérios oficiais da nossa Equipe de Qualidade.
tom: C#m (forma dos acordes no tom de Bm) Capotraste na 2ª casa
[Intro] G6/B  A7/C#  D 

[Primeira Parte]

[Tab - Riff 1]

   G/D    A7(4/9)
E|-5-3-2----0-2-----------------------------|
B|-0------3---------------------------------|
G|-0------4---------------------------------|
D|-0------5---------------------------------|
A|--------0---------------------------------|
E|------------------------------------------|

            G/D  A7(4/9)  D7M(9)/A
Como eu queria  te    ajudar
           G6/B     A7/C#   D
E te explicar que era verdade
         G     A7(4)
O que você sentiu 
     F#m7(11)  G6 
Ninguém    forçou
   G6/B   A7/C#  D
Você tem tanto  medo

             G/D    A7(4/9)  D7M(9)/A
Por que não pode acredi_____tar
          G6/B    A7/C#     D
Que finalmente isso deu certo?
          G     A7(4)
Sem procurar razão 
     F#m7(11)  G6 
Pra dizer     não
    G6/B   A7/C#  
Se bate o desespero

( G  F#m7(11)  F7M(2/13)  Em )

[Refrão]

                             Bm7
Eu acredito que não foi por mal
             G
Mas que fez muito mal 
             F#m7(11)
Pra mim fez mesmo
             G
Mas que fez muito mal 
             F#m7(11)
Pra mim fez mesmo
             G6/B
Mas que fez muito mal 
     A7/C#
Pra mim fez mesmo

( G/D  D7M(9)/A  G6/B  A7/C#  D )

[Tab - Riff 2]

   G/D          D7M(9)/A     G6/B  A7/C# D
E|-5-3-2---0-2----0------------0-----0-----2|
B|-0-----3------2---2---2------3-----5-----3|
G|-0-----0------2-----2--------0-----0-----2|
D|-0-----0------4---------4----0-----------0|
A|--------------0------------2-----4-----0--|
E|------------------------------------------|

[Segunda Parte]

[Tab - Riff 1]

   G/D    A7(4/9)
E|-5-3-2----0-2-----------------------------|
B|-0------3---------------------------------|
G|-0------4---------------------------------|
D|-0------5---------------------------------|
A|--------0---------------------------------|
E|------------------------------------------|

             G/D  A7(4/9)        D7M(9)/A
Não, não desliga,         por favor
            G6/B     A7/C#       D
Nós dois sabemos que       a gente
                G      A7(4)
Não vai mais se encontrar
     F#m7(11)  G6 
Nem se     quiser 
   G6/B  A7/C#   D
É muito deprimente
 
           G/D      A7(4/9)        D7M(9)/A
Não chora mais, vai,        por favor
            G6/B  A7/C#     D
Eu sei que você  também sente
           G    A7(4)
Mas se não é igual
     F#m7(11)  G6 
Não leve a    mal
     G6/B  A7/C#     
Vou fazer        diferente

( Em  F#m7  G  F#7 )

[Terceira Parte]

[Tab - Riff 3]

     H.N.    .           .          .     .   
E|----7------7-----------7----------7-----5-|
B|----7------7-----------7----------7-----5-|
G|----7------7-----------7----------7-----5-|
D|------------------------------------------|
A|------------------------------------------|
E|-7------7------7-7--5-----5-5--5--------5-|
   ↓  ↑   ↓  ↑   ↓ ↑  ↓  ↑  ↓ ↑  ↓  ↑     ↓  

         Bm7         G/D
Não fala isso por favor
          Bm7           A9
Eu já passei por tanta coisa
            D4            D
Eu não vou mais ser seu amigo
           D4            D
Eu quero até mas não consigo
           Riff 3
Eu também vou sentir saudades

Eu também vou chorar sozinho

( G  F#m7(11)  F7M(2/13)  Em )

[Refrão]

                                Bm7
Não peça tempo para eu te esquecer
               G
Que eu me acostumo
                  F#m7(11)
Mas eu não te esqueço
               G
Que eu me acostumo
                  F#m7(11)
Mas eu não te esqueço
               G
Que eu me acostumo
                  F#m7(11)
Mas eu não te esqueço
          G6/B          A7/C#
Eu te prometo que eu jamais te esqueço

( G/D  D7M(9)/A  G6/B  A7/C#  D )

[Tab - Riff 2]

   G/D          D7M(9)/A     G6/B  A7/C# D
E|-5-3-2---0-2----0------------0-----0-----2|
B|-0-----3------2---2---2------3-----5-----3|
G|-0-----0------2-----2--------0-----0-----2|
D|-0-----0------4---------4----0-----------0|
A|--------------0------------2-----4-----0--|
E|------------------------------------------|

[Quarta Parte]

          G6/B  A7/C#  D7M(9)/A
Eu gosto tanto de   você
           G6/B    A7/C#    D
E eu aguentei por muito tempo
          G      A7(4)
Eu fiz o meu melhor
     F#m7(11)  G6 
Mas não dá    mais
   G6/B     A7/C#  D9/A
Hoje eu morri por dentro
Outros vídeos desta música
150.812 exibições
  • Simplificar cifra
    • ½ Tom
    • Am
    • Bbm
    • Bm
    • Cm
    • C#m
    • Dm
    • Ebm
    • Em
    • Fm
    • F#m
    • Gm
    • G#m
  • Adicionar à lista

Afinação da cifra

Afinador online

    0 comentários

    Ver todos os comentários

    Entre para o Cifra Club PRO

    Tenha acesso a benefícios exclusivos no App e no Site

    • Chega de anúncios

    • Mais recursos no app do Afinador

    • Atendimento Prioritário

    • Aumente seu limite de lista

    • Ajude a produzir mais conteúdo

    Capítulos
    • Apresentação
    • Tocando a Música
    • Acordes da Intro
    • Ensinando o Ritmo da Intro e Primeira Parte
    • Acorde do Riff
    • Tocando o Riff da Primeira Parte
    • Ensinando o Riff da Primeira Parte
    • Acordes da Primeira Parte
    • Tocando a Primeira Parte
    • Tocando a Primeira Parte e o Riff
    • Acordes da Ponte e do Refrão
    • Tocando a Ponte 1 e o Refrão
    • Ensinando o Ritmo da Ponte
    • Ensinando o Ritmo do Refrão
    • Tocando o Riff 2
    • Ensinando o Riff 2
    • Dicas da Segunda Parte
    • Acordes da Ponte 3 e do Refrão
    • Tocando a Ponte 3
    • Ensinando o Ritmo da Ponte 3
    • Ensinando o Riff 3
    • Dicas Finais
    • Acorde do Final
    • Tocando a Quarta Parte
    • Encerramento

    Cifra Club Pro

    Aproveite o Cifra Club com benefícios exclusivos e sem anúncios
    Cifra Club Pro
    Aproveite o Cifra Club com benefícios exclusivos e sem anúncios
    OK