Cifra Club

Pouco a Pouco

Tim Bernardes

Cifra: Principal (violão e guitarra)
Selo Cifra Club: esta cifra foi revisada para atender aos critérios oficiais da nossa Equipe de Qualidade.
tom: Db (forma dos acordes no tom de C) Capotraste na 1ª casa
[Intro]

E|---3---3---3----3---2----2---2----2---0---0---0---0---2---2---2---2|
B|-----1-1-----1--1-----1--1-----1--1-----1-1-----1-1-----1-1-----1-1|
G|-------0--------0--------0--------0-------0-------0-------0-------0|
D|-0-----0-0------0-0------0-0------0-0-----0-0-----0-0-----0-0-----0|
A|-------------------------------------------------------------------|
E|-------------------------------------------------------------------|

E|---3---x---3----x---2----x---2----x---0---x---0---x---2---x---2---x|
B|-----1-x-----1--x-----1--x-----1--x-----1-x-----1-x-----1-x-----1-x|
G|-------x--------x--------x--------x-------x-------x-------x-------x|
D|-0-----x-0------x-0------x-0------x-0-----x-0-----x-0-----x-0-----x|
A|-------------------------------------------------------------------|
E|-------------------------------------------------------------------|

Quem eu quero agradar
Não existe, nem irá

E|-----------------------|
B|--1-----1-----1-----1--|
G|----2-----2-----2-----2|
D|------3-----------3----|
A|0-----------0----------|
E|-----------------------|

Não existe, pois sou eu

         C9
E|-----------------------|
B|--0-----0-----0-----0--|
G|----0-----0-----0-----0|
D|------2-----------2----|
A|3-----------3----------|
E|-----------------------|

C9
Não sei nada do que é meu
G6(9)
Cadê?
C/G
Cadê?

E|---3---x---3----x---2----x---2----x---0---x---0---x---2---x---2---x|
B|-----1-x-----1--x-----1--x-----1--x-----1-x-----1-x-----1-x-----1-x|
G|-------x--------x--------x--------x-------x-------x-------x-------x|
D|-0-----x-0------x-0------x-0------x-0-----x-0-----x-0-----x-0-----x|
A|-------------------------------------------------------------------|
E|-------------------------------------------------------------------|

Não sei onde eu me perdi
Quanta coisa que eu fingi

E|-----------------------|
B|--1-----1-----1-----1--|
G|----2-----2-----2-----2|
D|------3-----------3----|
A|0-----------0----------|
E|-----------------------|

Minha mente deu um nó

         C9
E|-----------------------|
B|--0-----0-----0-----0--|
G|----0-----0-----0-----0|
D|------2-----------2----|
A|3-----------3----------|
E|-----------------------|

C9
Eu podia ser melhor
G6(9)
Pra mim
C/G
Pra mim

G                C/G
Pouco a pouco eu vou me conhecer melhor
G                C/G
Pouco a pouco eu vou me conhecer melhor

E|---3---x---3----x---2----x---2----x---0---x---0---x---2---x---2---x|
B|-----1-x-----1--x-----1--x-----1--x-----1-x-----1-x-----1-x-----1-x|
G|-------x--------x--------x--------x-------x-------x-------x-------x|
D|-0-----x-0------x-0------x-0------x-0-----x-0-----x-0-----x-0-----x|
A|-------------------------------------------------------------------|
E|-------------------------------------------------------------------|

Se eu vou contra quem eu sou
Não vou longe de onde estou

E|-----------------------|
B|--1-----1-----1-----1--|
G|----2-----2-----2-----2|
D|------3-----------3----|
A|0-----------0----------|
E|-----------------------|

Me desculpe, eu descontei

         C9
E|-----------------------|
B|--0-----0-----0-----0--|
G|----0-----0-----0-----0|
D|------2-----------2----|
A|3-----------3----------|
E|-----------------------|

C9
Em quem sempre me fez bem
G6(9)
Errei
C/G
Errei

E|---3---x---3----x---2----x---2----x---0---x---0---x---2---x---2---x|
B|-----1-x-----1--x-----1--x-----1--x-----1-x-----1-x-----1-x-----1-x|
G|-------x--------x--------x--------x-------x-------x-------x-------x|
D|-0-----x-0------x-0------x-0------x-0-----x-0-----x-0-----x-0-----x|
A|-------------------------------------------------------------------|
E|-------------------------------------------------------------------|

Se quem sabe eu aceitar
Quem eu sou sem censurar

E|-----------------------|
B|--1-----1-----1-----1--|
G|----2-----2-----2-----2|
D|------3-----------3----|
A|0-----------0----------|
E|-----------------------|

Toda a minha parte má

         C9
E|-----------------------|
B|--0-----0-----0-----0--|
G|----0-----0-----0-----0|
D|------2-----------2----|
A|3-----------3----------|
E|-----------------------|

C9
Poderia até te dar
G6(9)
Amor
C/G
Amor

G                C/G
Pouco a pouco eu vou me conhecer melhor
G                C/G
Pouco a pouco eu vou me conhecer melhor
G                C/G
Pouco a pouco eu vou me conhecer melhor
G                C/G
Pouco a pouco eu vou me conhecer melhor

E|------------------------------------------|
B|------------------------------------------|
G|------------------------------------------|
D|--------1-3-1-----------------------------|
A|----1-3-------3-1-3-3/6/3-3-1-------------|
E|--4---------------------------------------|
Outros vídeos desta música
12.729 exibições
    • ½ Tom
    • A
    • Bb
    • B
    • C
    • Db
    • D
    • Eb
    • E
    • F
    • F#
    • G
    • Ab
  • Adicionar à lista

Afinação da cifra

Afinador online

    0 comentários

    Ver todos os comentários

    Entre para o Cifra Club PRO

    Tenha acesso a benefícios exclusivos no App e no Site

    • Chega de anúncios

    • Mais recursos no app do Afinador

    • Atendimento Prioritário

    • Aumente seu limite de lista

    • Ajude a produzir mais conteúdo

    Cifra Club Pro

    Aproveite o Cifra Club com benefícios exclusivos e sem anúncios
    Cifra Club Pro
    Aproveite o Cifra Club com benefícios exclusivos e sem anúncios
    OK