Cifra Club

Talvez

Tim Bernardes

Cifra: Principal (violão e guitarra)
Selo Cifra Club: esta cifra foi revisada para atender aos critérios oficiais da nossa Equipe de Qualidade.
tom: A
A             A/G#
Talvez não esteja aqui
A/G          D  D/C#
Procurei mas desisti
   Bm7    Bm7/A  E7
Eu vou pra outro lugar

A             A/G#
Talvez não seja pra mim
A/G            D       D/C#
O que eu quero não vai vir
Bm7        Bm7/A  E7
E eu nunca vou chegar

E|---------------------------------------|
B|-----------------5--------5------7-5---|
G|--------6-4----4---4----4---4--------6-|
D|-7--6-7------7--------7--------7-------|
A|---------------------------------------|
E|---------------------------------------|

D
Eu não quis ouvir
Fui me fechar
                            A A/G# A/F# A/G#
Pra tudo que eu não conheço

E|---------------------------------------|
B|-----------------5--------5------7-5---|
G|--------6-4----4---4----4---4--------6-|
D|-7--6-7------7--------7--------7-------|
A|---------------------------------------|
E|---------------------------------------|

D
Eu fui esperar
Acontecer
                         A A/G# A/F# A/F
O que eu criei na cabeça
00:00 / 00:00
Outros vídeos desta música
Repetir
Outros vídeos desta música
13.695 exibições
    • ½ Tom
    • A
    • Bb
    • B
    • C
    • Db
    • D
    • Eb
    • E
    • F
    • F#
    • G
    • Ab
  • Adicionar à lista

Afinação da cifra

Afinador online

    0 comentários

    Ver todos os comentários

    Entre para o Cifra Club PRO

    Tenha acesso a benefícios exclusivos no App e no Site

    • Chega de anúncios

    • Mais recursos no app do Afinador

    • Atendimento Prioritário

    • Aumente seu limite de lista

    • Ajude a produzir mais conteúdo

    00:00 / 00:00

    Cifra Club Pro

    Aproveite o Cifra Club com benefícios exclusivos e sem anúncios
    Cifra Club Pro
    Aproveite o Cifra Club com benefícios exclusivos e sem anúncios
    OK