Cifra Club

Medicine

Tiny Moving Parts

Cifra: Principal (violão e guitarra)
Selo Cifra Club: esta cifra foi revisada para atender aos critérios oficiais da nossa Equipe de Qualidade.
tom: Cm
E|---------------------|------------------------|
B|---------------------|------------------------|
G|------2p0-------4-0--|------2p0-------4br5p0--|
D|----0-----0---0------|----0-----0---0---------|
A|--3---------5--------|--3---------5-----------|
E|---------------------|------------------------|

E|---------------------|--------6/10p6-------|
B|---------------------|----6h7---------7p6--|
G|------2p0-------4-0--|---------------------|
D|----0-----0---0------|---------------------|
A|--3---------5--------|--7------------------|
E|---------------------|---------------------|

E|-----------------------------------|
B|------t15-----t15-----t15-----t15--|
G|-----------------------------------|
D|-----------------------------------|
A|--t10-----t10-----t10-----t10------|
E|-----------------------------------|

                 OR

[Intro] 
*Not relative to Capo on 6th Fret*
E|-----------------------|---------------------------|
B|-----------------------|---------------------------|
G|------8p6--------10-6--|------8p6--------10br11p6--|
D|----6-----6----6-------|----6-----6----6-----------|
A|--9---------11---------|--9---------11-------------|
E|-----------------------|---------------------------|

E|-----------------------|-----------12/16p6-------|
B|-----------------------|-----12h13---------13p6--|
G|------8p6--------10-6--|-------------------------|
D|----6-----6----6-------|-------------------------|
A|--9---------11---------|--13---------------------|
E|-----------------------|-------------------------|

E|-----------------------------------|
B|------t21-----t21-----t21-----t21--|
G|-----------------------------------|
D|-----------------------------------|
A|--t16-----t16-----t16-----t16------|
E|-----------------------------------|



************************************

| h   Hammer-on
| p   Pull-off
| t   Tapping
| br  Bend release
| /   Slide up
Outros vídeos desta música
    17 exibições
      • ½ Tom
      • Am
      • Bbm
      • Bm
      • Cm
      • C#m
      • Dm
      • Ebm
      • Em
      • Fm
      • F#m
      • Gm
      • G#m
    • Adicionar à lista

    Afinação da cifra

    Afinador online

      0 comentários

      Ver todos os comentários

      Entre para o Cifra Club PRO

      Tenha acesso a benefícios exclusivos no App e no Site

      • Chega de anúncios

      • Badges exclusivas

      • Mais recursos no app do Afinador

      • Atendimento Prioritário

      • Aumente seu limite de lista

      • Ajude a produzir mais conteúdo

      Cifra Club Pro

      Aproveite o Cifra Club com benefícios exclusivos e sem anúncios
      Cifra Club Pro
      Aproveite o Cifra Club com benefícios exclusivos e sem anúncios
      Ops (: Contenido disponible sólo en portugués.
      OK