Cifra Club

Aprenda

Comida

Titãs

Cifra: Simplificada (violão e guitarra)
tom: A
Intro:

E|---------------------------------------------------
B|---------------------------------------------------
G|---------------------------------------------------
D|----0--2-2------0-------0--2-2------0--------------
A|--2-----------2-------2-----------2----------------
E|0-----------0-------0-----------0------------------

E|---------------------------------------------------
B|---------------------------------------------------
G|----0--2-2------0-------0--2-2------0--------------
D|--2-----------2-------2-----------2----------------
A|0-----------0-------0-----------0------------------
E|---------------------------------------------------

Base: E  A7

Primeira Parte:
   E
Bebida é água
Comida é pasto
A7
   Você tem sede de que
Você tem fome de que

   E
A gente não quer só comida
A gente quer comida
Diversão e arte
   A7
A gente não quer só comida
A gente quer saída
Para qualquer parte

   E
A gente não quer só comida
A gente quer bebida
Diversão, balé
   A7
A gente não quer só comida
A gente quer a vida

              E  A7
Como a vida quer

   E
Bebida é água
Comida é pasto
A7
   Você tem sede de que
Você tem fome de que

   E
A gente não quer só comer
A gente quer comer
E quer fazer amor
   A7
A gente não quer só comer
A gente quer prazer
Prá aliviar a dor

   E
A gente não quer
Só dinheiro
A gente quer dinheiro
E felicidade
   A7
A gente não quer
Só dinheiro
A gente quer inteiro
E não pela metade

(Segunda Parte)

( F7  F#7  F7  G7  F#7  F7  E7  F7 )

Terceira Parte:

E|---------------------------------------------------
B|---------------------------------------------------
G|---------------------------------------------------
D|0-2-0----------------------------------------------
A|0-2-0----------------------------------------------
E|---------------------------------------------------

Ritmo: ↓  ↑↑↓   ↑↑   ↓↑↓↑   ↓  ↑↑↓  ↑

(Repetir a Primeira Parte)

   E
Bebida é água
Comida é pasto
A7
   Você tem sede de que
Você tem fome de que

   E
A gente não quer só comida
A gente quer comida
Diversão e arte
   A7
A gente não quer só comida
A gente quer saída
Para qualquer parte

   E
A gente não quer só comida
A gente quer bebida
Diversão, balé
   A7
A gente não quer só comida
A gente quer a vida
Como a vida quer

   E
A gente não quer só comer
A gente quer comer
E quer fazer amor
   A7
A gente não quer só comer
A gente quer prazer
Prá aliviar a dor

   E
A gente não quer
Só dinheiro
A gente quer dinheiro
E felicidade
   A7
A gente não quer
Só dinheiro
A gente quer inteiro
E não pela metade

(Repete o Riff da Terceira Parte)

        E
Desejo,   necessidade, vontade
Necessidade, desejo
A7
   Necessidade, vontade
Necessidade
        E
Desejo,   necessidade, vontade
Necessidade, desejo
A7
   Necessidade, vontade
        E   A7
Necessidade
Composição de Arnaldo Antunes / Marcelo Fromer / Sérgio Britto
Colaboração e revisão:
  • Gustavo Cunha
21.583 exibições
    • ½ Tom
    • A
    • Bb
    • B
    • C
    • Db
    • D
    • Eb
    • E
    • F
    • F#
    • G
    • Ab
  • Adicionar à lista

    0 comentários

    Ver todos os comentários
    00:00 / 00:00
    Outros vídeos desta música
    Repetir Qualidade Automático
    Outros vídeos desta música
    00:00 / 00:00
    Automático
    Capítulos
    • Início
    • Tocando a música
    • Acordes da Introdução e Primeira Parte
    • Tocando Introdução e Primeira Parte
    • Ensinando Riff Principal
    • Ensinando Ritmo da Introdução e Primeira Parte
    • Acordes da Segunda Parte
    • Tocando Segunda Parte
    • Ensinando Segunda Parte
    • Acorde do Final
    • Tocando Terceira Parte e Final
    • Ensinando Riff da Terceira Parte
    • Encerramento

    Cifra Club Pro

    Aproveite o Cifra Club com benefícios exclusivos e sem anúncios
    Cifra Club Pro
    Aproveite o Cifra Club com benefícios exclusivos e sem anúncios
    OK