Cifra Club

Comida

Titãs

Tab de baixo: Principal
exibições 24.363
Intro:

G|---------------------------------------------------
D|---------------------------------------------------
A|-----5-7-7-----5-----5-7-7-----5-------------------
E|-0-7-------0-7---0-7-------0-7---------------------
                                                      (2x)
G|---------------------------------------------------
D|-----5-7-7-----5-----5-7-7-----5-------------------
A|-0-7-------0-7---0-7-------0-7---------------------
E|---------------------------------------------------


Primeira parte:

G|---------------------------------------------------
D|---------------------------------------------------
A|-----5-7-7-----5-----5-7-7-----5-------------------
E|-0-7-------0-7---0-7-------0-7---------------------
                                                      (9x)
G|---------------------------------------------------
D|-----5-7-7-----5-----5-7-7-----5-------------------
A|-0-7-------0-7---0-7-------0-7---------------------
E|---------------------------------------------------

Bebida é água!
Comida é pasto!
Você tem sede de que?
Você tem fome de que?...

A gente não quer só comida
A gente quer comida
Diversão e arte
A gente não quer só comida
A gente quer saída
Para qualquer parte...

A gente não quer só comida
A gente quer bebida
Diversão, balé
A gente não quer só comida
A gente quer a vida
Como a vida quer...

Bebida é água!
Comida é pasto!
Você tem sede de que?
Você tem fome de que?...

A gente não quer só comer
A gente quer comer
E quer fazer amor
A gente não quer só comer
A gente quer prazer
Prá aliviar a dor...

A gente não quer
Só dinheiro
A gente quer dinheiro
E felicidade
A gente não quer
Só dinheiro
A gente quer inteiro
E não pela metade...

Segunda parte:

G|---------------------------------------------------
D|---------------------------------------------------
A|-8---8-8---8-----8-----9-9-8---8-8---8-----8-------
E|---8-----8---8-8---8-8-------8-----8---8-8---------


G|---------------------------------------------------
D|---------------------------------------------------
A|-10-10-9-9-8---8-8---8-----8-8-8-7-7-8---8-8---8/-\
E|-------------8-----8---8-8-------------8-----8-----


Terceira parte:

G|---------------------------------------------------
D|---------------------------------------------------
A|-5-7-5-7-7-7-7-5-7-5-7-7-7-7-----------------------
E|---------------------------------------------------
                                                      (2x)
G|---------------------------------------------------
D|---------------------------------------------------
A|-3-0-----------0-3---------------------------------
E|-----3-5-5-0-5-----3-5-5-0-5-----------------------


Repetição da primeira parte:

G|---------------------------------------------------
D|---------------------------------------------------
A|-----5-7-7-----5-----5-7-7-----5-------------------
E|-0-7-------0-7---0-7-------0-7---------------------
                                                      (5x)
G|---------------------------------------------------
D|-----5-7-7-----5-----5-7-7-----5-------------------
A|-0-7-------0-7---0-7-------0-7---------------------
E|---------------------------------------------------

(...)
Bebida é água!
Comida é pasto!
Você tem sede de que?
Você tem fome de que?...

A gente não quer só comida
A gente quer comida
Diversão e arte
A gente não quer só comida
A gente quer saída
Para qualquer parte...

A gente não quer só comida
A gente quer bebida
Diversão, balé
A gente não quer só comida
A gente quer a vida
Como a vida quer...

A gente não quer só comer
A gente quer comer
E quer fazer amor
A gente não quer só comer
A gente quer prazer
Prá aliviar a dor...

A gente não quer
Só dinheiro
A gente quer dinheiro
E felicidade
A gente não quer
Só dinheiro
A gente quer inteiro
E não pela metade...


Repetição da terceira parte:

G|---------------------------------------------------
D|---------------------------------------------------
A|-5-7-5-7-7-7-7-5-7-5-7-7-7-7-----------------------
E|---------------------------------------------------
                                                      (2x)
G|---------------------------------------------------
D|---------------------------------------------------
A|-3-0-----------0-3---------------------------------
E|-----3-5-5-0-5-----3-5-5-0-5-----------------------


Quarta Parte:

G|---------------------------------------------------
D|---------------------------------------------------
A|-5-7-5-7-7-7-5-7-5-7-7-7-3-0---------0-3----------- (2x)
E|-----------------------------3-5-5-5-----3-5-5-5---

(...)
Diversão e arte
Para qualquer parte
Diversão, balé
Como a vida quer
Desejo, necessidade, vontade
Necessidade, desejo, eh!
Necessidade, vontade, eh!
Necessidade...

Final:

G|---------------------------------------------------
D|---------------------------------------------------
A|-----5-7-7-----5-----5-7-7-----5-------------------
E|-0-7-------0-7---0-7-------0-7---------------------

G|---------------------------------------------------
D|-----5-7-7-----5-----------------------------------
A|-0-7-------0-7---0---------------------------------
E|---------------------------------------------------
Colaboração e revisão:
  • Filipe Marks

0 comentários

    mostrar mais comentários

    Conseguiu tocar?

    8tocaram0ainda não

    Grave um vídeo tocando Comida e mande pra gente!

    00:00 / 00:00
    outros vídeos desta música
    repetirqualidadeautomática
    Outro vídeos desta música
      00:00 / 00:00
      automática
      Capítulos
      • Início
      • Tocando a música
      • Tocando Introdução
      • Ensinando Introdução
      • Tocando Segunda e Terceira Parte
      • Ensinando Segunda Parte
      • Ensinando Terceira Parte
      • Tocando Quarta Parte
      • Ensinando Quarta Parte
      • Encerramento
      OK