Cifra Club

Domingo

Titãs

Cifra: Principal (violão e guitarra)
Selo Cifra Club: esta cifra foi revisada para atender aos critérios oficiais da nossa Equipe de Qualidade.
tom: G
[Intro] G

[Tab - Intro]

E|------------------------------------------|
B|------------------------------------------|
G|------------------------------------------|
D|------------------------------------------|
A|-2h3p2-----------0-0-2-----0-2-2h3p2------|
E|-------3-0-3-3-0-------3-3----------------|

E|------------------------------------------|
B|------------------------------------------|
G|------------------------------------------|
D|------------------------------------------|
A|-----------0-0-2--------------------------|
E|-3-0-3-3-0-------3-0-0--------------------|

E|------------------------------------------|
B|------------------------------------------|
G|------------------------------------------|
D|------------------------------------------|
A|-2h3p2-----------0-0-2-----0-2-2h3p2------|
E|-------3-0-3-3-0-------3-3----------------|

E|------------------------------------------|
B|------------------------------------------|
G|------------------------------------------|
D|------------------------------------------|
A|---------3-2-0----------------------------|
E|-3-0-3-3-------3--------------------------|

[Primeira Parte]

[Tab - Primeira Parte]

E|------------------------------------------|
B|------------------------------------------|
G|------------------------------------------|
D|------------------------------------------|
A|-2h3p2-----------0-0-2-----0-2-2h3p2------|
E|-------3-0-3-3-0-------3-3----------------|

E|------------------------------------------|
B|------------------------------------------|
G|------------------------------------------|
D|------------------------------------------|
A|-----------0-0-2--------------------------|
E|-3-0-3-3-0-------3-0-0--------------------|

                 G
Não sei o que fazer

Não sei o que fazer

Eu saio por aí

Sem ter aonde ir

Não é sete de setembro

Nem dia de finados

Não é sexta-feira santa

Nem um outro feriado

[Pré-Refrão 1]

                   C
E antes que eu esqueça aonde estou

Antes que eu esqueça aonde estou

                     G
Aonde estou com a cabeça?

[Segunda Parte]

              G
Tudo está fechado

Tudo está fechado

Domingo é sempre assim

E quem não está acostumado?

É dia de descanso

Nem precisava tanto

É dia de descanso

Programa Silvio Santos

[Pré-Refrão 2]

                   C
E antes que eu confunda o domingo

E antes que eu confunda o domingo
                   G
O domingo com a segunda

[Refrão]

                  Am  C
Domingo eu quero ver
              G
O domingo passar
                  Am  C
Domingo eu quero ver
              G
O domingo acabar

                  Am  C
Domingo eu quero ver
              G
O domingo passar
                  Am  C
Domingo eu quero ver
              G
O domingo acabar

[Solo] G  C  G

[Terceira Parte]

              G
Tudo está fechado

Tudo está fechado

Domingo é sempre assim

E quem não está acostumado

É dia de descanso

Nem precisava tanto

É dia de descanso

Programa Silvio Santos

[Pré-Refrão 2]

                   C
E antes que eu confunda o domingo

E antes que eu confunda o domingo
                   G
O domingo com a segunda

[Refrão]

                  Am  C
Domingo eu quero ver
              G
O domingo passar
                  Am  C
Domingo eu quero ver
              G
O domingo acabar

                  Am  C
Domingo eu quero ver
              G
O domingo passar
                  Am  C
Domingo eu quero ver
              G
O domingo acabar

[Ponte]

G
  Até o próximo

Até o próximo

Até o próximo domingo
G
  Até o próximo

Até o próximo

Até o próximo domingo

[Final] G
00:00 / 00:00
Outros vídeos desta música
Repetir
Outros vídeos desta música
183.459 exibições
    • ½ Tom
    • A
    • Bb
    • B
    • C
    • Db
    • D
    • Eb
    • E
    • F
    • F#
    • G
    • Ab
  • Adicionar à lista

Afinação da cifra

Afinador online

    0 comentários

    Ver todos os comentários

    Entre para o Cifra Club PRO

    Tenha acesso a benefícios exclusivos no App e no Site

    • Chega de anúncios

    • Mais recursos no app do Afinador

    • Atendimento Prioritário

    • Aumente seu limite de lista

    • Ajude a produzir mais conteúdo

    00:00 / 00:00

    Cifra Club Pro

    Aproveite o Cifra Club com benefícios exclusivos e sem anúncios
    Cifra Club Pro
    Aproveite o Cifra Club com benefícios exclusivos e sem anúncios
    OK