Cifra Club

Aprenda

Domingo

Titãs

Tab de baixo: Principal
Sem baixo na introdução.

Não sei o que fazer
Não sei o que fazer
Eu saio por aí
Sem ter aonde ir

Agora, entre com a Base:

G|---------------------------------------------------------------|
D|---------------------------------------------------------------|
A|2-3-2--------------0----2--------2-3-2--------------0---2------|
E|------3-0-3-3--0-3--------3--3---------3-0-3-3--0-3-------3--0-|

G|------------------------------------------------------|
D|------------------------------------------------------|
A|2-3-2--------------0---2--------2-3-2-------3-3-2-0---|
E|------3-0-3-3-0-3-------3--3---------3-0-3---------3-|

Não é sete de setembro
Nem dia de finados
Não é sexta-feira sant
Nem um outro feriado

  E antes que eu esqueça aonde estou

G|------------------------------------|
D|------------------------------------|
A|2-3--2-------------3-3--0--2-3------|
E|-----------3------------------------|

  Antes que eu esqueça aonde estou

G|----------------------------------|
D|----------------------------------|
A|0--------0-------3-3--0--2-3------|
E|----------------------------------|

  Aonde estou com a cabeça?

G|------------------------------------|
D|------------------------------------|
A|------2--3---2----------------------|
E|----------------3--0-3-3--3-0-3-0-3-|

(Base)

Tudo está fechado
Tudo está fechado
Domingo é sempre assim
E quem não está acostumado?

É dia de descanso
Nem precisava tanto
É dia de descanso
Programa Silvio Santos

  E antes que eu confunda   o domingo,

G|------------------------------------|
D|------------------------------------|
A|2-3--2-------------3-3--0--2-3------|
E|-----------3------------------------|

  Antes que eu confunda   o domingo,

G|----------------------------------|
D|----------------------------------|
A|0--------0-------3-3--0--2-3------|
E|----------------------------------|

   O domingo com a segunda

G|------------------------------------|
D|------------------------------------|
A|----2-3--2--------------------------|
E|------------3-----0-3--3--3-0-3-0-3-|

   Domingo eu quero ve...........er, o domingo passar

G|---------------------------------------------------------------|
D|---------------------------------------------------------------|
A|--2-3---2----------0---------0-3---2-3-2------------0---2------|
E|--------------3-0------------------------3-0-3-3--0-------3--3-|

Domingo eu quero ver o domingo passar
Domingo eu quero ver o domingo passar
Domingo eu quero ver o domingo passar

(Base)

Até o proximo, até o proximo, até o proximo domingo
Composição de Sérgio Britto / Toni Bellotto
15.587 exibições

0 comentários

Ver todos os comentários
00:00 / 00:00
Outros vídeos desta música
Repetir Qualidade Automático
Outros vídeos desta música
00:00 / 00:00
Automático

Cifra Club Pro

Aproveite o Cifra Club com benefícios exclusivos e sem anúncios
Cifra Club Pro
Aproveite o Cifra Club com benefícios exclusivos e sem anúncios
OK