Cifra Club

Aprenda

Isso

Titãs

Tab de baixo: Principal
Isso, que acontece com a gente


Acontece sempre com qualquer casal

G----------------------------------------------------------------------------
D---2--2-----2-----0--0-----0--------------------------------------------
A----------2-----2---------2-----0---3----3----0----3---0----2----2---
E-----------------------------------------------------------------------------
Isso, que ataca de repente

G----------------------------------------------------------------------------
D---2--2-----2-----0--0-----0--------------------------------------------
A----------2-----2---------2-----0---3----3----0----3---0----2----2---
E-----------------------------------------------------------------------------
Não respeita cor, credo ou classe social

G----------------------------------------------------------------------------
D---2--2-----2-----0--0-----0--------------------------------------------
A----------2-----2---------2-----0---3----3----0----3---0----2----2---
E-----------------------------------------------------------------------------
Isso, isso

G----------------------------------------------------------------------------
D---2--2-----2-----0--0-----0--------------------------------------------
A----------2-----2---------2-----0---3----3----0----3---0----2----2---
E-----------------------------------------------------------------------------


G--------------1-1----1-2-2---2-4-4---------
D---2-2----2-------2--------2---------------
A--------2----------------------------------
E-------------------------------------------
Parecia que não ia acontecer com a gente

G--------------1-1----1-2-2---2-4-4---------
D---2-2----2-------2--------2---------------
A--------2----------------------------------
E-------------------------------------------
Nosso amor era tão firme e forte diferente

G--------------1-1--1-2-2------------------
D---2-2----2-------2-----------------------
A--------2---------------------------------
E------------------------------------------
Não vá dizer 

G—2-2-----------4-4------------------------
D------4-4-2-4-----------------------------
A------------------------------------------
E------------------------------------------
Que eu não avisei você

G—4-4-----------4-4-------------------------
D------4-4-2-4------------------------------
A-------------------------------------------
E-------------------------------------------
Olha o que vai fazer

G-4-4-1-1-----1-4-4-----------------------
D----------4------------------------------
A-----------------------------------------
E-----------------------------------------
Não vá dizer 

G--------------1-1--1-2-2------------------
D---2-2----2-------2-----------------------
A--------2---------------------------------
E------------------------------------------
Não vá dizer 

G—2-2-----------4-4------------------------
D------4-4-2-4-----------------------------
A------------------------------------------
E------------------------------------------
Que eu não avisei você

G—4-4-----------4-4-------------------------
D------4-4-2-4------------------------------
A-------------------------------------------
E-------------------------------------------
Olha o que vai fazer

G-4-4-1-1-----1-4-4-----------------------
D----------4------------------------------
A-----------------------------------------
E-----------------------------------------
Não vá dizer 


Solo: (F#m  A   B)

G-------------2-2-2-----2-4—--4---4-4-----------
D-4-4-4-2-4----------4--------------------------
A-----------------------------------------------
E-----------------------------------------------
Não adianta mesmo reclamar

G-------------2-2-2-----2-4—--4---4-4-----------
D-4-4-4-2-4----------4--------------------------
A-----------------------------------------------
E-----------------------------------------------
Acreditar que basta apenas se deixar levar

G----------------------------------------------------------------------------
D---2--2-----2-----0--0-----0--------------------------------------------
A----------2-----2---------2-----0---3----3----0----3---0----2----2---
E-----------------------------------------------------------------------------
Isso, que atrapalha nossos planos

G----------------------------------------------------------------------------
D---2--2-----2-----0--0-----0--------------------------------------------
A----------2-----2---------2-----0---3----3----0----3---0----2----2---
E-----------------------------------------------------------------------------
Derrubou o muro, invadiu nosso quintal

G----------------------------------------------------------------------------
D---2--2-----2-----0--0-----0--------------------------------------------
A----------2-----2---------2-----0---3----3----0----3---0----2----2---
E-----------------------------------------------------------------------------
Isso, passam-se os anos

G----------------------------------------------------------------------------
D---2--2-----2-----0--0-----0--------------------------------------------
A----------2-----2---------2-----0---3----3----0----3---0----2----2---
E-----------------------------------------------------------------------------
Sempre foi assim, será sempre igual

G----------------------------------------------------------------------------
D---2--2-----2-----0--0-----0--------------------------------------------
A----------2-----2---------2-----0---3----3----0----3---0----2----2---
E-----------------------------------------------------------------------------
Isso, isso

G--------------1-1----1-2-2---2-4-4---------
D---2-2----2-------2--------2---------------
A--------2----------------------------------
E-------------------------------------------
Parecia que não ia acontecer com a gente

G--------------1-1----1-2-2---2-4-4---------
D---2-2----2-------2--------2---------------
A--------2----------------------------------
E-------------------------------------------
Nosso amor era tão firme e forte diferente

G--------------1-1--1-2-2------------------
D---2-2----2-------2-----------------------
A--------2---------------------------------
E------------------------------------------
Não vá dizer 

G—2-2-----------4-4------------------------
D------4-4-2-4-----------------------------
A------------------------------------------
E------------------------------------------
Que eu não avisei você

G—4-4-----------4-4-------------------------
D------4-4-2-4------------------------------
A-------------------------------------------
E-------------------------------------------
Olha o que vai fazer

G-4-4-1-1-----1-4-4-----------------------
D----------4------------------------------
A-----------------------------------------
E-----------------------------------------
Não vá dizer 

G--------------1-1--1-2-2------------------
D---2-2----2-------2-----------------------
A--------2---------------------------------
E------------------------------------------
Não vá dizer 

G—2-2-----------4-4------------------------
D------4-4-2-4-----------------------------
A------------------------------------------
E------------------------------------------
Que eu não avisei você

G—4-4-----------4-4-------------------------
D------4-4-2-4------------------------------
A-------------------------------------------
E-------------------------------------------
Olha o que vai fazer

G-4-4-1-1-----1-4-4-----------------------
D----------4------------------------------
A-----------------------------------------
E-----------------------------------------
Não vá dizer 

G----------------------------------------------------------------------------
D---2--2-----2-----0--0-----0--------------------------------------------
A----------2-----2---------2-----0---3----3----0----3---0----2----2---
E-----------------------------------------------------------------------------
Isso, isso

E


_______________________________________________________
Contribuição: Rodrigo de Jesus Araújo(rodrigo-vitoria@bol.com.br)
Composição de Tony Bellotto
10.220 exibições

0 comentários

Ver todos os comentários
00:00 / 00:00
Outros vídeos desta música
Repetir Qualidade Automático
Outros vídeos desta música
00:00 / 00:00
Automático

Cifra Club Pro

Aproveite o Cifra Club com benefícios exclusivos e sem anúncios
Cifra Club Pro
Aproveite o Cifra Club com benefícios exclusivos e sem anúncios
OK