Notificações Amigos pendentes

      Titãs

      Mentiras

      13.963 exibições
      Tom: A
      Intro: Riff 1
      
      Riff 2
      Querem me ensinar
      Riff 3
      Querem me julgar
      pelo que eu fiz
      
      Riff 1
      
      Riff 2
      Querem me julgar
      Riff 3
      Querem me ensinar
      como se diz
      
      e|------------------------------|---|
      B|------------------------------|   |
      G|-------------------9----------|   |
      D|-------------------9----------|   |
      A|-------------------7----------|   |
      E|---5-4-5-7-5-4-(0)------------|   |
                          Mentiras        |- (2x) Refrão
      e|------------------------------|   |
      B|------------------------------|   |
      G|-------------------9----------|   |
      D|-------------------9----------|   |
      A|-------------------7----------|   |
      E|---5-4-5-7-5-4-(0)------------|---|
           Ahhh...
      
      Riff 1 (2x)
      
      Riff 2
      Querem me salvar
      Riff 3
      Querem me curar
      do que eu não sofro
      Riff 2
      Riff 3
      do que eu não sofro
      Riff 2
      Querem me salvar
      Riff 3
      Querem me curar
      mas eu só ouço
      
      e|------------------------------|---|
      B|------------------------------|   |
      G|-------------------9----------|   |
      D|-------------------9----------|   |
      A|-------------------7----------|   |
      E|---5-4-5-7-5-4-(0)------------|   |
                          Mentiras        |- (2x) Refrão
      e|------------------------------|   |
      B|------------------------------|   |
      G|-------------------9----------|   |
      D|-------------------9----------|   |
      A|-------------------7----------|   |
      E|---5-4-5-7-5-4-(0)------------|---|
           Ahhh...
      
      Riff 4 (2x)
      
      Riff 5
      Eu não posso viver comigo
      Riff 6
      Eu não posso fugir de mim
      Riff 5
      Eu não quero que gritem comigo
      Riff 6
      Eu não quero que riam de mim
      Riff 5
      Eu não quero que falem
      Riff 6
      Eu não quero que digam
      
      e|------------------------------|---|
      B|------------------------------|   |
      G|-------------------9----------|   |
      D|-------------------9----------|   |
      A|-------------------7----------|   |
      E|---5-4-5-7-5-4-(0)------------|   |
                          Mentiras        |- (2x) Refrão
      e|------------------------------|   |
      B|------------------------------|   |
      G|-------------------9----------|   |
      D|-------------------9----------|   |
      A|-------------------7----------|   |
      E|---5-4-5-7-5-4-(0)------------|---|
           Ahhh...
      
      Riff 1 (2x)
      
      Riff 2
      Querem me curar
      Riff 3
      do que eu não sofro
      Riff 2
      Querem me julgar
      Riff 3
      pelo que eu fiz
      Riff 2
      Querem me salvar
      Riff 3
      mas eu só ouço
      Riff 2
      Querem me ensinar
      Riff 3
      como se diz
      
      e|------------------------------|---|
      B|------------------------------|   |
      G|-------------------9----------|   |
      D|-------------------9----------|   |
      A|-------------------7----------|   |
      E|---5-4-5-7-5-4-(0)------------|   |
                          Mentiras        |- (2x) Refrão
      e|------------------------------|   |
      B|------------------------------|   |
      G|-------------------9----------|   |
      D|-------------------9----------|   |
      A|-------------------7----------|   |
      E|---5-4-5-7-5-4-(0)------------|---|
           Ahhh...
      
      _________Seguencias de Riff's_________
      
      Riff 1
      
      e|----------------------------------------|
      B|----------------------------------------|
      G|----------------------------------------|
      D|-------------XX-9----------------4------|
      A|-------------XX-9------------5-7--------|
      E|----5--4-5-7-XX-7---5--4-5-7------------|
      
      
      Riff 2
      
      e|--------------------|
      B|--------------------|
      G|--------------------|
      D|-------------XX-9---|
      A|-------------XX-9---|
      E|----5--4-5-7-XX-7---|
      
      
      Riff 3
      
      e|---------------------|
      B|---------------------|
      G|---------------------|
      D|--------------4------|
      A|----------5-7--------|
      E|-5--4-5-7------------|
      
      
      Riff 4
      
      e|-------------------------------------|
      B|-------------------------------------|
      G|-------------------------------------|
      D|-------------------------------------|
      A|-------------------------------------|
      E|---0-0000-4h5-4-7-4--0-0000-4h5-5-4--|
      
      
      Riff 5
      
      e|---------------------|
      B|---------------------|
      G|---------------------|
      D|---------------------|
      A|---------------------|
      E|---0-0000-4h5-4-7-4--|
      
      
      Riff 6
      
      e|-------------------|
      B|-------------------|
      G|-------------------|
      D|-------------------|
      A|-------------------|
      E|---0-0000-4h5-5-4--|
      
        Composição: Marcelo Fromer / Sérgio Britto / Tony BellottoColaboração e revisão:
        • VLADI DU KAVAKO ...........®
        • Everton Barros (|KDA2|)
        • Danilo Trindade

        Comentários 0

        140 .
        140 cancelar

        conseguiu tocar?

        covers

        Grave um vídeo tocando Mentiras e mande pra gente!

        Ex.: http://www.youtube.com/watch?v=0IvSvIwGdwk
        ver covers de outras músicas »
        0:00 / 0:00

        Capítulos

          1 versão de violão dificuldade exibições contribuição e correção
          1 versão de guitarra dificuldade exibições contribuição e correção
          1 versão de cavaco dificuldade exibições contribuição e correção
          1 versão de teclado dificuldade exibições contribuição e correção
          play/pausefechar subir/descer velocidade
          6ª corda E5ª corda A4ª corda D3ª corda G2ª corda B1ª corda E
            acordes
            publicidade
            fechar
            ok