Enviar cifraEntrar

Sonífera Ilha

Titãs

Cifra: Principal
exibições 616.573
Tom: C
[Intro]


E|-----1-0---0h1----------0--------------------------|
B|---------------0h1---------4~----------------------|
G|-2h3---------------1h2-----------------------------|
D|---------------------------------------------------|
A|---------------------------------------------------|
E|---------------------------------------------------|


E|---------------------------------------------------|
B|--4------5-----------5\---5\----1------------------|
G|----5------5-------------------------2-------------|
D|------6------7----7\----5\----2--------------------|
A|-----------------------------------3---------------|
E|---------------------------------------------------|


[Solo Intro]


E|-----7b8--5---5-5-8--------------------------------|
B|-5-8--------8--------------------------------------|
G|---------------------------------------------------|
D|---------------------------------------------------|
A|---------------------------------------------------|
E|---------------------------------------------------|


E|-----7b8--5---5-5----------------------------------|
B|-5-8--------8-----8-5--8-8-5----5------------------|
G|-----------------------------8----8-7-5------------|
D|----------------------------------------7----------|
A|---------------------------------------------------|
E|---------------------------------------------------|


E|-----7b8--5---8-8-5--------5-----------------------|
B|-5-8--------8--------5-8-5---5---------------------|
G|-------------------------------7-5-----------------|
D|---------------------------------------------------|
A|---------------------------------------------------|
E|---------------------------------------------------|


           Am
Não posso mais viver assim ao seu ladinho
          Dm                              Am
Por isso colo o meu ouvido no radinho de pilha
           G
Pra te sintonizar
   F          E  E/G#  E/A  E/B
Sozinha, numa ilha


E|---------------------------------------------------|
B|----------------------7--10-7--9/10--9/10----------|
G|-----------8/9--8/9--------------------------------|
D|--7--10-7-------------5--8--5--6/7---6/7-----------|
A|-----------6/7--6/7--------------------------------|
E|--5--8--5------------------------------------------|


E|---------------------------------------------------|
B|---------------------------------------------------|
G|----------------------------------0----------------|
D|------------------------------1/2---2\1p0----------|
A|-------1/2--------1/2---0-3-0-------------0-0---0--|
E|-0-4-0------0-4-0-----------------------------4----|


E|---------------------------------------------------|
B|----------------------7--10-7--9/10--9/10----------|
G|-----------8/9--8/9--------------------------------|
D|--7--10-7-------------5--8--5--6/7---6/7-----------|
A|-----------6/7--6/7--------------------------------|
E|--5--8--5------------------------------------------|


E|---------------------------------------------------|
B|---------------------------------------------------|
G|---------------------------------------------------|
D|---------------------------------------------------|
A|-------1/2--------1/2------------------------------|
E|-0-4-0------0-4-0----------------------------------|


E|---------------------------------------------------|
B|---------------------------------------------------|
G|---------------------------------------------------|
D|---3-2----3-2-0-------3-2----3-2-0-----------------|
A|-0------0-------3---0------0-------3---------------|
E|---------------------------------------------------|


E|-----1-0---0h1----------0--------------------------|
B|---------------0h1---------4~----------------------|
G|-2h3---------------1h2-----------------------------|
D|---------------------------------------------------|
A|---------------------------------------------------|
E|---------------------------------------------------|


E|---------------------------------------------------|
B|--4------5-----------5\---5\----1------------------|
G|----5------5-------------------------2-------------|
D|------6------7----7\----5\----2--------------------|
A|-----------------------------------3---------------|
E|---------------------------------------------------|


         Am
Sonífera I__lha!
              Dm
Descansa meus o__lhos
               E
Sossega minha boca
             Am
Me enche de luz

         Am
Sonífera I__lha!
              Dm
Descansa meus o__lhos
               E
Sossega minha boca
             Am
Me enche de luz

         Am
Sonífera I__lha!
              Dm
Descansa meus o__lhos
               E
Sossega minha boca
             A  A7
Me enche de luz

         Dm      G
Sonífera I__lha!
              C    F
Descansa meus o__lhos
               E   E/G#  E/A  E/B
Sossega minha boca
             Am
Me enche de luz

         Am
Sonífera I__lha!
              Dm
Descansa meus o__lhos
               E
Sossega minha boca
             A  A7
Me enche de luz

         Dm      G
Sonífera I__lha!
              C    F
Descansa meus o__lhos
               E   E/G#  E/A  E/B
Sossega minha boca

Am  Am6


E|-----7b8--5---5-5-8-------7b8--5---8-8-5-----------|
B|-5-8--------8---------5-8--------8-----------------|
G|---------------------------------------------------|
D|---------------------------------------------------|
A|---------------------------------------------------|
E|---------------------------------------------------|


  Am6
E|------------------------------------------|
B|-7-7-7-7--7-7-7-7--7-7-7-7----------------|
G|-5-5-5-5--5-5-5-5--5-5-5-5----------------|
D|-7-7-7-7--7-7-7-7--7-7-7-7----------------|
A|-0-0-0-0--0-0-0-0--0-0-0-0----------------|
E|------------------------------------------|
  • 1
  • 2
  • 3
  • 4
  • 5
  • 6
  • 7
  • 8
  • 9
  • 10
  • 11
  • 12

    0 comentários

      mostrar mais comentários

      Conseguiu tocar?

      47tocaram0ainda não

      Grave um vídeo tocando Sonífera Ilha e mande pra gente!

      00:00 / 00:00
      outros vídeos desta música
      repetirqualidadeautomática
      • automática
      Outro vídeos desta música
        00:00 / 00:00
        automática
        • automática
        Acordes para:violão e guitarra
        dificuldadeexibiçõescontribuições
        1 versão de Tab de baixoexibiçõescontribuições
        1 versão de Partiturasformatodownloadscontribuição
        fecharplay/pause subir/descer velocidade
          Acordes para:violão e guitarra
          acordes
          fechar
          OK