Cifra Club

Aprenda

Televisão

Titãs

Cifra: Versão 2 (violão e guitarra)
tom: A
Intro:] A F#
     F#           A    F#                     A  (parte 2x)        F#
E|----------------|-----------------------2-|-----------------2-2-2-----5-2-----2--|     
B|--------4-------|-----------------------2-|---------2--5----------5-2---------2--|     
G|----3h4---4p3-2-|--4-2h3p2-------4-2h3--3-|-----2-4-----------------------2h3-3--|     
D|--4-------------|----------4p(2~)---------|-4-4----------------------------------|     
A|--4-------------|-------------------------|--------------------------------------|     
E|--2-------------|-------------------------|--------------------------------------|     

A                                           F#
A televisão me deixou burro, muito burro demais
E|------------------------2--------------|
B|------------------------2--------------|
G|---4-2h3p2-------4-2h3--3--------------|
D|----------4p(2~)-----------------------|
A|---------------------------------------|
E|---------------------------------------|
A                                           F#
Agora todas coisas que eu penso me parecem iguais
E|-------------------------2--------------|
B|-------------------------2--------------|
G|----4-2h3p2-------4-2h3--3--------------|
D|-----------4p(2~)-----------------------|
A|----------------------------------------|
E|----------------------------------------|
A                                           F#
O sorvete me deixou gripado pelo resto da vida
-2/5555>>>-|-------------|
-3/5555>>>-|-------------|
-3/6666>>>-|-4-3~---4-3~-|
-----------|-------------|
-----------|-------------|
-----------|-------------|
    A                                           F#
E agora toda noite quando deito é boa noite, querida
E|-------------|
B|-------------|
G|-4-3~---4-3~-|
D|-------------|
A|-------------|
E|-------------|
E
Ô cride, fala pra mãe
        F#
Que eu nunca li num livro que um espirro
                    E
fosse um vírus sem cura
E|-5-4~-5-4-5-4-5-4-|
B|-5-5~-5-5-5-5-5-5-|
G|------------------|
D|------------------|
A|------------------|
E|------------------|
F#                                        E
Vê se me entende pelo menos uma vez, criatura
E|-5-4~-5-4-5-4-5-4-|
B|-5-5~-5-5-5-5-5-5-|
G|------------------|
D|------------------|
A|------------------|
E|------------------|
   A                 F#
Ô cride, fala pra mãe!
E|----5-----5--------------------------------|
B|---5--5-----5------------------------------|
G|--6-----6-------------3------3-------------|
D|-7------------------4---4------4-----------|
A|------------------4-------4----------------|
E|----------------2--------------------------|

A mãe diz pra eu fazer alguma coisa mas eu não faço nada
A luz do sol me incomoda, então deixa a cortina fechada
É que a televisão me deixou burro, muito burro demais
E agora eu vivo dentro dessa jaula junto dos animais

Ô cride, fala pra mãe
Que tudo que a antena captar meu coração captura
Vê se me entende pelo menos uma vez, criatura!
Ô cride, fala pra mãe!

E|----5-----5--------------------------------|
B|---5--5-----5------------------------------|
G|--6-----6-------------3------3-------------|
D|-7------------------4---4------4-----------|
A|------------------4-------4----------------|
E|----------------2--------------------------|

No solo está todas as passagens da música.
Não tem erro, é só observar que é fácil.

Fim
-2/5555>>>-12-13-14-|
-3/5555>>>-12-13-14-|
-3/6666>>>-13-14-15-|
--------------------|
--------------------|
--------------------|
Composição de Arnaldo Antunes / Marcelo Fromer / Tony Belotto
Colaboração e revisão:
  • VLADIMIR KLIMEIKA
36.121 exibições
    • ½ Tom
    • A
    • Bb
    • B
    • C
    • Db
    • D
    • Eb
    • E
    • F
    • F#
    • G
    • Ab
  • Adicionar à lista

    0 comentários

    Ver todos os comentários
    00:00 / 00:00
    Outros vídeos desta música
    Repetir Qualidade Automático
    Outros vídeos desta música
    00:00 / 00:00
    Automático

    Cifra Club Pro

    Aproveite o Cifra Club com benefícios exclusivos e sem anúncios
    Cifra Club Pro
    Aproveite o Cifra Club com benefícios exclusivos e sem anúncios
    OK