Cifra Club

Cachorro Louco

TNT

Cifra: Principal (violão e guitarra)
tom: A
  Intro 3X(E D A)
|-----------------------|
|-----------------------|
|--------------0-2-3-2-0|
|----0--2-3-2-0---------|
|--------------3-3-3-3-3|
|----3--3-3-3-3---------|
E                              D                 A
Nada que ele faz tem sentido, ele é um cara locão
E                        D                 A
Transa só menina casada, ele é mesmo o cão
E D             A
  cachorro louco
E D             A
  cachorro louco

E                               D                 A
Era um garotinho sensível, cheio de amor pra dar
E                               D                 A
Mas a sociedade falida, fez sua cabeça mudar

E D             A
  cachorro louco
E D             A Bm
  cachorro louco
 

 Diziam que era louco
 C            D      Bm
 mas não sei não
                 C         D
 a sua rebeldia aumentava todo o dia
 B    C# D D#
 ahhh
 
(repete tudo) 

Explicação da tab
A nota entre () deve ser repetida várias vezes.
B=Bend release
 
|-11/12-(12)--------|------------------------------------------|
|-11/12-(12)--------|-15-15-12--------------------14-14B-12----|
|-------------------|-14------15-14-12----------12-------------|
|-------------------|------------------12-14--14---------------|
|-------------------|------------------------------------------|
|-------------------|------------------------------------------|
 
|-11/12-(12)--------|------------------------(15)-------|
|-11/12-(12)--------|-15-15-12---------------(15)-------|
|-------------------|-14------15-14-12----14------------|
|-------------------|--------- ---------12-14-----------|
|-------------------|-----------------------------------|
|-------------------|-----------------------------------|
00:00 / 00:00
Outros vídeos desta música
Repetir
Outros vídeos desta música
Composição de Charles Master / Flávio Basso
Colaboração e revisão:
  • Daniel Crestani
  • Henry Cardoso
  • Élison Duarte
165.353 exibições
    • ½ Tom
    • A
    • Bb
    • B
    • C
    • Db
    • D
    • Eb
    • E
    • F
    • F#
    • G
    • Ab
  • Adicionar à lista

    0 comentários

    Ver todos os comentários

    Entre para oCifra Club PRO

    Tenha acesso a benefícios exclusivos no App e no Site

    • Chega de anúncios

    • Prioridade de compra em lançamentos

    • Mais recursos no app do Afinador

    • Atendimento Prioritário

    • Descontos nos produtos Cifra Club

    • Ajude a produzir mais conteúdo

    00:00 / 00:00

    Cifra Club Pro

    Aproveite o Cifra Club com benefícios exclusivos e sem anúncios
    Cifra Club Pro
    Aproveite o Cifra Club com benefícios exclusivos e sem anúncios
    OK