Cifra Club

Estou na Mão

TNT

Cifra: Principal (violão e guitarra)
tom: C
(intro) C Am

E|---------------------------------------|
B|---------------------------------------|
G|---------0---0--0---0---2---2-2-0------|
D|--------2-0h2--2-0h2---2-0h2-----2-0---|
A|---0-2-3------3-------0----------------|
E|-3-------------------------------------|

E|---------------------------------------|
B|---------------------------------------|
G|---------0---0--0---0---2---2---2---2--|
D|--------2-0h2--2-0h2---2-0h2-0h2-0h2---|
A|---0-2-3------3-------0----------------|
E|-3-------------------------------------|

( C Am )
Eu era um cara que fazia tudo aquilo que a garota queria
( C Am )
Hoje ela me dá o fora e eu fico aqui em pleno dia
C                G          C    Am
A vida não acaba não, meu irmão
C                G          C    Am
A vida não acaba não, meu irmão

( C Am )
Quando o tempo passa a gente logo fica assustado
( C Am )
Agora tudo o que eu quero é ficar ao teu lado
C                G          C    Am
O tempo já passou pra nós dois
C                G          C    Am
O tempo já passou pra nós dois

E                 Am
Quando a lua caiu no telhado
G                 C
Outra menina já foi me chamar
E                 Am
Quando você for falar comigo
( G )
Eu só quero amar, eu só quero amar,
Eu só quero amar você!

( C Am )
Eu tô na mão!
( C Am )
Eu tô na mão!
00:00 / 00:00
Outros vídeos desta música
Repetir
Outros vídeos desta música
Composição de Charles Master / Flávio Basso
Colaboração e revisão:
  • Rafael Rodrigues
  • glauc monero
45.026 exibições
    • ½ Tom
    • A
    • Bb
    • B
    • C
    • Db
    • D
    • Eb
    • E
    • F
    • F#
    • G
    • Ab
  • Adicionar à lista

    0 comentários

    Ver todos os comentários

    Entre para oCifra Club PRO

    Tenha acesso a benefícios exclusivos no App e no Site

    • Chega de anúncios

    • Prioridade de compra em lançamentos

    • Mais recursos no app do Afinador

    • Atendimento Prioritário

    • Descontos nos produtos Cifra Club

    • Ajude a produzir mais conteúdo

    00:00 / 00:00

    Cifra Club Pro

    Aproveite o Cifra Club com benefícios exclusivos e sem anúncios
    Cifra Club Pro
    Aproveite o Cifra Club com benefícios exclusivos e sem anúncios
    OK