Cifra Club

Velvet

Toadies

Cifra: Principal (violão e guitarra)
Selo Cifra Club: esta cifra foi revisada para atender aos critérios oficiais da nossa Equipe de Qualidade.
tom: Em
Intro Riff
                  (add bass)
E|---------------|-------------------------------------------|
B|---------------|-------------------------------------------|
G|-7--7----7--7--|--7--7----7--7----7--7----6-6-6-6-7-7-7-7--|
D|---------------|-------------------------------------------|
A|-5--5----5--5--|--5--5----5--5----5--5----4-4-4-4-5-5-5-5--|
E|---------------|-------------------------------------------|

Bridge Riff
E|----------------------| |
B|----------------------| |
G|----------------------| |
D|----------------------| |  x4
A|-------8--7----6----5-| |
E|--6-------------------| |
                         |
E|----------------------| |
B|----------------------| |
G|----------------------| |
D|----------------------| |  x2
A|-------5--4----3----2-| |
E|--3-------------------| |

Interlude Riff - GUITAR 1
E|-------------------------------------------------------|
B|-------------------------------------------------------|
G|--7-7----------------------------------6-6-6-6-7-7-7-7-|
D|--------r| epeat lots of times, then --------------------|
A|--5-5----------------------------------4-4-4-4-5-5-5-5-|
E|-------------------------------------------------------|

Interlude Riff - GUITAR 2
E|--------------------|-------------------|-----------------------|-----------------------|
B|--------------------|-------------------|-----------------------|-----------------------|
G|--7---7---10-9---10-|-11--11--12-11--12-|-13---13----14-13---14-|--15---15---16-15---16-|
D|--------------------|-------------------|-----------------------|-----------------------|
A|--5---5---8--7---8--|-9---9---10-9---10-|-11---11----12-11---12-|--13---13---14-13---14-|
E|--------------------|-------------------|-----------------------|-----------------------|

GUITAR 2 continued
E|---------|----------------|--------------------------|
B|---------|----------------|--------------------------|
G|-17--17--|----------------|--18-18-18-18-19-19-19-19-|
D|---------|--8| times then--|--------------------------|
A|-15--15--|----------------|--16-16-16-16-17-17-17-17-|
E|---------|----------------|--------------------------|



[Intro]
(Intro riff once alone)
                         C#  D
(Intro riff over chords)
G   A#   G   B   G   C   C#  D
(No riff, just chords)
G   A#   G   B   G   C   C#           D
                            Get away,   Get away

[Verse 1]
G F
     You hurt me you fuck
G F
     You hurt me you fuck
G F
     You hurt me you fuck
G F
     You hurt me


[Chorus]
G   A#   G   B   G   C   C#   D
G   A#   G   B   G   C   C#          D
                            Stop it,    Stop it

[Verse 2]
G F
     You hurt me you cunt
G F
     You hurt me you cunt
G F
     You hurt me you cunt
G F
     You hurt me


[Bridge]
(see tab)
A#      G
           Cunt cunt cunt cunt
A#      G
           Hurry hurry hurry hurry
A#      G
           Woman woman woman woman woman woman woman woman


[Interlude]
(see tab)
N.C.  during solo part
G   A#   G   B   G   C   C#   D
G   A#   G   B   G   C   C#           D
                            Get away,   Get away


[Verse 3]
G F
     You hurt me you fuck
G F
     You hurt me you fuck
G F
     You hurt me....
G F
00:00 / 00:00
Outros vídeos desta música
Repetir
Outros vídeos desta música
5 exibições
    • ½ Tom
    • Am
    • Bbm
    • Bm
    • Cm
    • C#m
    • Dm
    • Ebm
    • Em
    • Fm
    • F#m
    • Gm
    • G#m
  • Adicionar à lista

Afinação da cifra

Afinador online

    0 comentários

    Ver todos os comentários

    Entre para o Cifra Club PRO

    Tenha acesso a benefícios exclusivos no App e no Site

    • Chega de anúncios

    • Mais recursos no app do Afinador

    • Atendimento Prioritário

    • Aumente seu limite de lista

    • Ajude a produzir mais conteúdo

    00:00 / 00:00

    Cifra Club Pro

    Aproveite o Cifra Club com benefícios exclusivos e sem anúncios
    Cifra Club Pro
    Aproveite o Cifra Club com benefícios exclusivos e sem anúncios
    OK