Cifra Club

Aprenda

Made To Love

Toby Mac

Cifra: Principal (violão e guitarra)
tom: C
Made to Love

The entire song is basicly only two different sets of chords.
(listen to the song to figure out timing)


Chord set #1 played from 0:00 - 2:06
E-------------------------------------------------------------|
B-------------------------------------------------------------|
G--7-7-7-7---------10-10-10-10--------------------------------|
D--7-7-7-7-8-8-8-8-10-10-10-10-7-7-7-7------------------------|
A--5-5-5-5-8-8-8-8-8--8--8--8--7-7-7-7------------------------|
E----------6-6-6-6-------------5-5-5-5------------------------|


Chord set #2 played from 2:07 - 3:50
(played on offbeat)
E----------------------------------------------------------------|
B----------------------------------------------------------------|
G--10--10--------------------------------------------------------|
D--10--10--10--10--12--12--8--8----------------------------------|
A--8---8---10--10--12--12--8--8----------------------------------|
E-----------8---8---10--10--6--6---------------------------------|

thats it, hope it helps
4.315 exibições
    • ½ Tom
    • A
    • Bb
    • B
    • C
    • Db
    • D
    • Eb
    • E
    • F
    • F#
    • G
    • Ab
  • Adicionar à lista

    0 comentários

    Ver todos os comentários
    00:00 / 00:00
    outros vídeos desta música
    repetir qualidade Automático
    Outros vídeos desta música
    00:00 / 00:00
    Automático

    Cifra Club Pro

    Aproveite o Cifra Club com benefícios exclusivos e sem anúncios
    Cifra Club Pro
    Aproveite o Cifra Club com benefícios exclusivos e sem anúncios
    OK