Cifra Club

Aprenda

Banquete do Cordeiro

Toca de Assis

Cifra: Principal (violão e guitarra)
tom: D
[Intro] 
        

   D             D/F#                    Em           Bm       A                D 

E|--------------------5-----|--------------------|----2--3--2--0------------------|
B|-----------5----3---------|-------2--3---------|-------------------3---2---3----|
G|------2-------------------|----4---------------|--------------------------------|
D|--------------------------|--------------------|--------------------------------|
A|--------------------------|--------------------|--------------------------------|
E|--------------------------|--------------------|--------------------------------|


   D             D/F#                    Em           Bm       A                C9 

E|--------------------5-----|--------------------|----2--3--2--0------------------|
B|-----------5----3---------|-------2--3---------|-------------------3---2---3----|
G|------2-------------------|----4---------------|--------------------------------|
D|--------------------------|--------------------|--------------------------------|
A|--------------------------|--------------------|--------------------------------|
E|--------------------------|--------------------|--------------------------------|



             G/B            D

E|------------------------------|
B|-----3--4--3------------------|
G|----------------2--0--2-------|
D|------------------------------|
A|------------------------------|
E|------------------------------|





D            D/F#  G
Em minha vida não há 
              A             G/B
Momento mais lindo que o de comungar 
     A           G       A
Teu Corpo e Teu Sangue, Senhor 
            C        G/B F#m 
Na terra celeste refeição 
 F#m                  G                A             G/B
Em Teu sacrifício no altar Tu vens de Ti mesmo me alimentar 
 Bm      A           G              Gm             D    
Como poderei, oh Deus, não dar-te o meu coração? 
D            C/E   D/F#  G
Pois em minha vida não há 
              A             G/B      A/C#  D    A/C#
Momento mais lindo que o de comungar 
  Bm            F#m          G        A     A/C#     D  
Fizeste-me enxergar com os olhos da alma a Tua Consagração 
A/C#  Bm            F#m         E     G        C  G/B Am G F  
      Esplêndida visão que perdura até a comunhão 

 E                 B/D#             C#m
Jesus quero sempre mais adorar-Te Senhor 
             B4              A
Viver Teu mistério com todo ardor 
A/B        A            A/B        F#m         E/F#
Pois encontrar-Te em Teu altar é encontrar-me a mim 
          A                   B
É minha razão de viver, de cantar 
              C#m                     B
De sorrir, de chorar, de entregar minha vida 
  A     E/G#            F#m          C#m   B
Na Tua Santa Missa e receber a Tua salvação 
       A          E/G#    F#m      C#m
Pois aqui se atualiza no tempo eterno 
  B       G#m    A     F#m G A
Tua morte e ressurreição 
   D/F#    G  A/G   F#m        Bm
Santíssimo Corpo    Deus Sacramento 
Em            A          D     D4   D  
faça-se em mim o Teu querer 
   D/F#    G    A/G  F#          G
Santíssimo Sangue ardente alimento 
D               G/A               D      B4 B    
Consagro inteiramente o meu viver

Solo: 
      

  E              E/G#           F#m     C#m       B          E

E|--------------7--|--------------|------4--5--4------------------------|
B|--------7--5-----|--------4--5--|---------------7---5--4---5----------|
G|-----4-----------|-----6--------|-------------------------------------|
D|-----------------|--------------|-------------------------------------|
A|-----------------|--------------|-------------------------------------|
E|-----------------|--------------|-------------------------------------|


  E              E/G#           F#m     C#m       B          D

E|--------------7--|--------------|------4--5--4------------------------|
B|--------7--5-----|--------4--5--|---------------7---5--4---5----------|
G|-----4-----------|-----6--------|-------------------------------------|
D|-----------------|--------------|-------------------------------------|
A|-----------------|--------------|-------------------------------------|
E|-----------------|--------------|-------------------------------------|


           A/C#              E    D/F#

E|---------------------------|
B|--5--7--5------------------|
G|------------------5------4-|
D|----------------------7----|
A|---------------------------|
E|---------------------------|



   E/G#     A  B/A G#m        C#m
Santíssimo Corpo  Deus Sacramento 
F#m           B          E      E4   E   E/G#
faça-se em mim o Teu querer 
      A  B/A         G#         A
Santíssimo Sangue ardente alimento 
E       A/B       C#m  B
Manancial da salvação 
A            B   C#m     B A   E/G#  A     E
Sangue que jorra do Teu aberto coração
Composição de Ghuto César / Ir. Eliseu
Colaboração e revisão:
40.637 exibições
    • ½ Tom
    • A
    • Bb
    • B
    • C
    • Db
    • D
    • Eb
    • E
    • F
    • F#
    • G
    • Ab
  • Adicionar à lista

    0 comentários

    Ver todos os comentários
    00:00 / 00:00
    Outros vídeos desta música
    Repetir Qualidade Automático
    Outros vídeos desta música
    00:00 / 00:00
    Automático

    Cifra Club Pro

    Aproveite o Cifra Club com benefícios exclusivos e sem anúncios
    Cifra Club Pro
    Aproveite o Cifra Club com benefícios exclusivos e sem anúncios
    OK