Cifra Club

Desafinado

Tom Jobim

Cifra: Principal (violão e guitarra)
Tom: A
[Intro] F7M/A

   F7M/A     Abº(13-)  Gm7(11)   Gb7(11+)
E|-0-1-0-1-0---1-0--------------------------|
B|-----------------3-1-----------1----------|
G|-5---------4-------------3-----3----------|
D|-3---------3-----------3---3---2----------|
A|-0-----------------------------1----------|
E|-----------4---------3---------2---2-3-4--|

   F7M/A     Abº(13-)  Gm7(11)   Gb7(11+)
E|-0-1-0-1-0---1-0--------------------------|
B|-----------------3-1-----------1----------|
G|-5---------4-------------3-----3----------|
D|-3---------3-----------3---3---2----------|
A|-0-----------------------------1----------|
E|-----------4---------3---------2-----1-2--|

   Eb7M/G          Aº(9-)    Gm7
E|-------------2-5/8-8--6--6----------------|
B|-3-4-3-4-3-4-------7--7------7-6-5-3-4----|
G|-3-----------------8--8----3--------------|
D|-1-----------------8-------3--------------|
A|------------------------------------------|
E|-3-------------------------3--------------|

   Dm7            Bb7(11+/13-)
E|-5--5-3-5-6-----6-------------------------|
B|-6--6-5-6-7-----7-------------------------|
G|-5--------------7-------------------------|
D|-0--------------6-------------------------|
A|----------------7-------------------------|
E|----------------6-------------------------|

   A7M       Ab7(13-)   G7(13)    Gb7(11+)
E|------------------------------0-----------|
B|-5-7-5-7-5---5------3-5-6-5-6---1---------|
G|-6---------5------5---4---------3---------|
D|-6---------4----------3---------2---------|
A|-0----------------------------------------|
E|-----------4----------3---------2---------|

  F7M/A            Ab°(13-)     Gm7(11)  Gb7(11+)
Quando eu vou cantar, você não de______ixa
F7M/A             Abº(13-)     Gm7(11)  Gb7(11+)
      E sempre vem    a mesma quei_____xa
Eb7M/G                                 A°(9-)  Gm7
      Diz que eu desafino, que eu não sei  cantar
 Dm7           Bb7(5-/13-)
Você é tão bonita
 A7M        Ab7(13-)   G7(13)         Gb7(11+)
Mas tua beleza também pode se enganar

[Primeira Parte]

   F6(9)                          G7(11+)
E|-8-------0-1-0-----------------1----------|
B|-8---1-3------------3-2-----3------2-2----|
G|-7-------------------------------4--------|
D|-7-------------------------------3--------|
A|-8----------------------------------------|
E|---------------------------------3--------|
   1 . . . 2 . . . 1 . . . 2 . . . 1 . . .

                         Gm7
E|-----------------------------------3------|
B|-----2---------2-------3---3---5-6---6----|
G|-----4-------4-----4---3---------3--------|
D|---3-------3-------3---3---------3--------|
A|------------------------------------------|
E|-3-------3-------3-----3---------3--------|
   2 . . . 1 . . . 2 . . . 1 . . . 2 . . .

   C7              Am7(5-)           D7(13-)
E|---------------8-------------8-7-6--------|
B|-----5-3---5-----8---------------------7--|
G|-3-----------------8---8---8-----------5--|
D|-5---------------7---------------------0--|
A|-3-------3-------0-------0----------------|
E|------------------------------------------|
   1 . . . 2 . . . 1 . . . 2 . . . 1 . . .

     Gm7(9)                A7(9-)
E|---5---------8-6-5-----6-----5---------0--|
B|-------------------8-----5-----------4----|
G|-------7---7-------------6----------------|
D|---------5-------5-------5----------------|
A|-------------------------0-------0--------|
E|------------------------------------------|
   2 . . . 1 . . . 2 . . . 1 . . . 2 . . .
  
   D7M           D7(9-)          G7(9)
E|-2---5-2---------------------------5---3--|
B|-2---------2---4-----4--------------------|
G|-2-------------------5-----5---4----------|
D|-0-------0---------4-------4---3----------|
A|-----------------5-------5----------------|
E|-------------------------------3----------|
   1 . . . 2 . . . 1 . . . 2 . . . 1 . . .

           G7(9-)          Gm7(5-)
E|-------4---3-----------1---0---------1----|
B|-6-3-----------6---3-----------2-----2----|
G|---------4-------------------------3---0--|
D|---------3--------------------------------|
A|------------------------------------------|
E|-3-------3-------3-------3-------3--------|
   2 . . . 1 . . . 2 . . . 1 . . . 2 . . .

   Gb7M(11+)     F7M
E|-1---1------------------------------------|
B|-1---1------------------------------------|
G|-3---3-----3---2--------------------------|
D|-3---3-----3---2--------------------------|
A|-1---1------------------------------------|
E|-2---2-----2---1--------------------------|
   1 . . . 2 . . . 1 . . . 2 . . . 1 . . .

F6(9)                           G7(11+)
     Se você disser que eu desafino amor,
Gm7                   C7           Am7(5-)   D7(13-)
   Saiba que isso em mim provoca imensa dor
Gm7(9)            A7(9-)      D7M              D7(9-)
      Só privilegiados tem ouvido igual ao seu
G7(9)             G7(9-)      Gm7(5-)     Gb7M(11+)
      Eu possuo apenas o que Deus me deu

[Segunda Parte]

                                   G7(11+)
E|---------0-1-0-----------------1----------|
B|-----1-3------------3-2-----3------2-2----|
G|---------------------------------4--------|
D|---------------------------------3--------|
A|------------------------------------------|
E|---------1-------1-------1-------3--------|
   1 . . . 2 . . . 1 . . . 2 . . . 1 . . .

                         Gm7
E|-----------------------------------3------|
B|-----2---------2-------3---3---5-6---6----|
G|-----4-------4-----4---3---------3--------|
D|---3-------3-------3---3---------3--------|
A|------------------------------------------|
E|-3-------3-------3-----3---------3--------|
   2 . . . 1 . . . 2 . . . 1 . . . 2 . . .

   C7            Am7(5-)           D7(13-)
E|---------------10----------------6---6----|
B|-----5-3---5------8----------8---7---7----|
G|-3-------------------8-8-----8---5---5----|
D|-5----------------10-------10----0--------|
A|-3-------3--------0------0----------------|
E|------------------------------------------|
   1 . . . 2 . . . 1 . . . 2 . . . 1 . . .

           Gm            A7(9-)
E|-x-6-------8---6-5-----6-----5------------|
B|-x-7---------------8-----5---------8\--6--|
G|-x-5---7-----------------6----------------|
D|-x-0-----5-------5-------5----------------|
A|-------------------------0-------0--------|
E|------------------------------------------|
   2 . . . 1 . . . 2 . . . 1 . . . 2 . . .

   Dm7(11)         E7(9+)        A7M
E|-3-----3-----------0-------0--------------|
B|---6---------6---8-----8-------5-----5-7--|
G|-5-----------5---7-----7-------6----------|
D|-3---------3---3-6-----6-------6---6------|
A|-5-------5-----------------------0--------|
E|-----------------0-------0----------------|
   1 . . . 2 . . . 1 . . . 2 . . . 1 . . .

       Ab7(13-)          G7(13)
E|--------------------------------------0---|
B|---7-5-------5---------3-5---6-5----6-----|
G|---------5---------5-----4----------------|
D|---------4---------------3----------------|
A|-0----------------------------------------|
E|---------4-------4-------3-------3--------|
   2 . . . 1 . . . 2 . . . 1 . . . 2 . . .

   Gb7(11+)
E|------------------------------------------|
B|-----1------------------------------------|
G|-----3------------------------------------|
D|-----2------------------------------------|
A|------------------------------------------|
E|-2----------------------------------------|
   1 . . . 2 . . . 1 . . . 2 . . . 1 . . .

F7M                        G7(11+)
   Se você insiste em classificar,
Gm7             C7            Am7(5-)  D7(13-)
   Meu comportamento de anti-musical
Gm7(9)              A7(9-)       Dm7(11)  E7(9+)
      Eu, mesmo mentindo devo argumentar
A7M                  Ab7(13-)         G7(13)       Gb7(11+)
   Que isto é Bossa Nova, Que isto é muito natural

[Terceira Parte]

           A7M              A#°
E|---------0---2-0---2---0---------------0--|
B|-----2---2-------------------3-2---3------|
G|---------1---------------0----------------|
D|---------2---------------2----------------|
A|---------0-------0-------1-------1--------|
E|------------------------------------------|
   2 . . . 1 . . . 2 . . . 1 . . . 2 . . .

   Bm7(11)         E7(9-)          A7M
E|-------0---------0-----0------------------|
B|---0---------0---3-----3-------------5-7--|
G|-2-----------2-----1-------1-------6------|
D|-0---------0---0---3-------3---2----------|
A|-2-------2-----------------------0--------|
E|-----------------0-------0----------------|
   1 . . . 2 . . . 1 . . . 2 . . . 1 . . .

          Am7(9)           Bm7(5-)
E|-4-5---7---5-----------0---1---0-1---0----|
B|-------5-----------------3----------------|
G|-------5-------5---7-----2----------------|
D|-------5-----------------3----------------|
A|-0-------0-------0-------2-----2----------|
E|------------------------------------------|
   2 . . . 1 . . . 2 . . . 1 . . . 2 . . .

   Bb7(9)          C7M           C#º
E|-------------------0-3-5-3-5---3----------|
B|-------3---------0---------------5---6-5--|
G|-------5---------0---------------3--------|
D|---6-------6-----2------------------------|
A|-----------------3-------3-------4--------|
E|-6----------------------------------------|
   1 . . . 2 . . . 1 . . . 2 . . . 1 . . .

           Dm7(11)         G7(13-)
E|-------3-------3-------------------3---5--|
B|---6-------3---------3---4---4------------|
G|---------5-----------5---4---4------------|
D|---------3---------3---3-3---3------------|
A|-4-------5-------5------------------------|
E|-------------------------3---3---3--------|
   2 . . . 1 . . . 2 . . . 1 . . . 2 . . .

   Gm7           D7(9-)   D7(13-) G7(13)
E|-6---5---6-5---8-----8--5---6---3---------|
B|-3-------------7-----7--7---7-------5---5-|
G|-3-------------8-----8--5---5-------4---4-|
D|-----------------0--------0---------3---3-|
A|------------------------------------------|
E|-3-------3-----------------------3--------|
   1 . . . 2 . . . 1 . . . 2 . . . 1 . . .

   G7(13-) C4(7/9) C7(9-/11+)
E|---------3-3-----2---2--------------------|
B|-4---4---3-3-----2---2--------------------|
G|-4---4---3-3-----3---3--------------------|
D|-3---3---3-3-----2---2--------------------|
A|---------3-------3---3--------------------|
E|-3----------------------------------------|
   2 . . . 1 . . . 2 . . . 1 . . . 2 . . .

  A7M           A#°          Bm7(11)      E7(9-)
O que você não sabe, nem sequer pressente
A7M                Am7(9)       Bm7(5-)       Bb7(9)
   É que os desafinados também tem um coração
C7M              C#°         Dm7(11)    G7(13-)
   Fotografei você na minha Rolleiflex
     Gm7           D7(9-)  D7(13-)    G7(13) 
Revelou-se a sua enorme ingrati______dão

( G7(13-) C4(7/9) C7(9-/11+) )

[Final]

F7M                       G7(11+)        Gm7
   Só não poderá falar assim do meu amor
            C7         Am7(5-/11)            D7(13-)
Este é o maior que você          pode encontrar
 D5+  Ab7(5-)
Viu
Bb6(9)                Bbm7M       Am7         Abº7M
      Você com a sua música esqueceu o principal
        G7
Que no peito dos desafinados
             Gb7M(11+)
No fundo do peito bate calado,
        G7              Gm7   C4(7/9)  
Que no peito dos desafinados também   
 C7(9-)  Gm7(11)  Gb7(11+)  F7M
Bate     um      cora______ção

[Final] F7M(6/9/11+) 


Final:
   F7M                               G7(11+)
E|-----------0-1-0-----------------1--------|
B|-1-----1-3------------3-2-----3------2---2|
G|-2---------------------------------4------|
D|-2---------------------------------3------|
A|------------------------------------------|
E|-1---------1-------1-------1-------3------|
   1 . . . 2 . . . 1 . . . 2 . . . 1 . . .

                         Gm7
E|-----------------------------------3------|
B|---2---2-------2---2---3---3---5-6---6----|
G|-------------4-----4---3---------3--------|
D|-----------3-------3---3---------3--------|
A|------------------------------------------|
E|-3-------3-------3-----3---------3--------|
   2 . . . 1 . . . 2 . . . 1 . . . 2 . . .

   C7               Am7(5-)              D(5+)
E|------------------10---9-8-7---6-----10---|
B|---5---3---5-------------------7-----11---|
G|-3-----------------7---8-9-10--------11---|
D|-5-----------------------------------0----|
A|-3-------3-------0------------------------|
E|------------------------------------------|
   1 . . . 2 . . . 1 . . . 2 . . . 1 . . .

  Ab7(5-)  Bb6(9)        Bbm7M           Am7
E|-----------5-8-6-5-----6---------------5--|
B|-------------------8---6---10--8---6---5--|
G|-5-------5-------------6---6---6---6---5--|
D|-4-------5-----------------7---7---7------|
A|-5-------5--------------------------------|
E|-4-------6-------6-------6-------6--------|
   2 . . . 1 . . . 2 . . . 1 . . . 2 . . .

                  Abº7M             G7
E|----------------3-------------------------|
B|-----8--6---5---3-------------------------|
G|-----5--5---5---4-----4-------------------|
D|-----5--5---5---------3-------0-2-3-3-3-3-|
A|-0--------0-----------5-----------2-------|
E|------------------4---------------3-------|
   1 . . . 2 . . . 1 . . . 2 . . . 1 . . .

                           Gb7M(11+)
E|------------------------------------------|
B|---------------------------------------1--|
G|---0-------------0------------------------|
D|-3-----3---3---3---3-2-3-----3---3-3-3----|
A|-------------------------1----------------|
E|-3-------3-------3-------2-------2--------|
   2 . . . 1 . . . 2 . . . 1 . . . 2 . . .

                   G7           Gm7
E|---------------------------3--------------|
B|-------------3-5-6-6-6-6-6-----6-----5----|
G|-----3-----------4-------------3-----3----|
D|-3---------------5-------------3-----3----|
A|-1----------------------------------------|
E|-2-------2-------3-------3-------3--------|
   1 . . . 2 . . . 1 . . . 2 . . . 1 . . .

   C4(7/9)         C7(9-)  Gm7(11) Gb7(11+)
E|-----------------3-------1-------1---0----|
B|-3-------5-------2-------1-------1--------|
G|-3-------3-------3-------3-------3--------|
D|-3-------3-------2-------3-------2--------|
A|-3---------------3-------1-------1--------|
E|-------------------------3-------2--------|
   2   .   .   .   1   .   .   .   2   .

   F7M
E|-1----------------------------------------|
B|-1---------------------------------1---1--|
G|-2---------0---0---2-2---2-3---3---3---3--|
D|-2-------3-3---3---3-3---3-3---3---3---3--|
A|-3----------------------------------------|
E|-1---------1---1---1-1---1-1---1---1---1--|
   1 . . . 2 . . . 1 . . . 2 . . . 1 . . .

                               F7M(6/9/11+)
E|--------------10-8-----------0------------|
B|-3-----1---------------------0------------|
G|-3-----2------7--5-----------0------------|
D|-3-----2---------------------0------------|
A|-----------------------------0------------|
E|-1-----1---------------------1------------|
   2 . . . 1 . . . 2 . . . 1 . . . 2 . . .
exibições 353.868
Acordes para:
    Composição: Newton Mendonça / Tom Jobim Colaboração e revisão:
    • Thiago Almeida
    • Philippe Lobo
    • Morgan Sobrenome

    0 comentários

    mostrar mais comentários

    Conseguiu tocar?

    23 tocaram 5 ainda não

    Grave um vídeo tocando Desafinado e mande pra gente!

    00:00 / 00:00
    outros vídeos desta música
    repetir qualidade Automático
    Outros vídeos desta música
    00:00 / 00:00
    Automático
    Capítulos
    • Início
    • Tocando a música
    • Tocando Introdução
    • Acordes do Primeiro Verso da Introdução
    • Ensinando Introdução - Primeiro Verso
    • Ensinando Introdução - Segundo Verso
    • Acordes do Terceiro Verso da Introdução
    • Ensinando Introdução - Terceiro Verso
    • Acordes do Quarto Verso da Introdução
    • Ensinando Introdução - Quarto Verso
    • Acordes da Continuação do Quarto Verso
    • Ensinando Introdução - Quarto Verso
    • Tocando Introdução (Tablatura)
    • Tocando Primeira Parte
    • Acordes do Primeiro Verso da Primeira Parte
    • Ensinando Primeira Parte - Primeiro Verso
    • Acordes do Segundo Verso da Primeira Parte
    • Ensinando Primeira Parte - Segundo Verso
    • Acordes do Terceiro Verso da Primeira Parte
    • Ensinando Primeira Parte - Terceiro Verso
    • Acordes do Quarto Verso da Primeira Parte
    • Ensinando Primeira Parte - Quarto Verso
    • Tocando Primeira Parte (Tablatura)
    • Tocando Segunda Parte
    • Acordes do Primeiro e Segundo Versos da Segunda Pa
    • Ensinando Segunda Parte - Primeiro Verso
    • Ensinando Segunda Parte - Segundo Verso
    • Acordes do Terceiro Verso da Segunda Parte
    • Ensinando Segunda Parte - Terceiro Verso
    • Acordes do Quarto Verso da Segunda Parte
    • Ensinando Segunda Parte - Quarto Verso
    • Tocando Segunda Parte (Tablatura)
    • Tocando Terceira Parte
    • Acordes do Primeiro Verso da Terceira Parte
    • Ensinando Terceira Parte - Primeiro Verso
    • Acordes do Segundo Verso da Terceira Parte
    • Ensinando Terceira Parte - Segundo Verso
    • Acordes do Terceiro Verso da Terceira Parte
    • Ensinando Terceira Parte - Terceiro Verso
    • Acordes do Quarto Verso da Terceira Parte
    • Ensinando Terceira Parte - Quarto Verso
    • Tocando Terceira Parte (Tablatura)
    • Tocando Final
    • Acordes do Primeiro e Segundo Versos do Final
    • Ensinando Final - Primeiro e Segundo Versos
    • Acordes do Terceiro Verso do Final
    • Ensinando Final - Terceiro Verso
    • Acordes do Quarto Verso do Final
    • Ensinando Final - Quarto Verso
    • Acordes do Quinto Verso do Final
    • Ensinando Final - Quinto Verso
    • Tocando Arranjo Instrumental
    • Encerramento
    OK