Cifra Club

Dor e Dor

Tom Zé

Tab de baixo: Principal
(Parte 01) Introdução e primeira estrofe (repete):

     E  S S S S S E  E  S S S S S    E  S S S S S E  E  S S S S S  
G||-------------------------------|-------------------------------|
D||-------------------------------|-------------------------------|
A||-------------------------------|-------------------------------|
E||--0--0-0-3-3-3-2--0--3-3-3-2-2-|--0--0-0-3-3-3-2--0--3-3-3-2-2-|

           Te quero te quero...
            

(Parte 02) Pré-refrão:


     E  S S S S S E  E  S S S S S    E  E  E  E  E  E  E  E  
G||-------------------------------|--------------------------|
D||-------------------------------|--------------------------|
A||-------------------------------|--2--2--2--2--2--2--2--2--|
E||--0--0-0-3-3-3-2--0--3-3-3-2-2-|--------------------------|

           A  dor  a  dor a dor a dor


Refrâo:

     E  S S  S  S S S S S S S E  E   
G||---------------------------------|
D||---------------------------------|
A||--7----7-10-10---9---7-----------|
E||-------------------------8-5-----|

     Eu te espero porque o grito...
 

  E  S S S S S S S S S S S S E     E  S S S E  E  E  E  E  S  
--------------------------------|----------------------------|
-----------------------5---5-7--|--7------7------------------|
-----------5---7---7------------|-------7---7--------5--7----|
--5----5-8----------------------|--------------5--8----------|


  E  S S S S S S S S S S S S E     S S S S S S S S S S S S E  E   
--------------------------------|--------------------------------|
--5-----------------------------|--5-------5---------------------|
-----------------------3---5----|------------------------3-5-----|
-------3-3-3---6---6------------|------3-------3---6-6-----------|


  E  S S S S S S S S S S S S S S    E  S S S S S S S S S S S S E   
-----------------------5---------|--------------------------------|
---------------5---7-------7-5---|--3-----------------------------|
--5----5-8-8---------------------|---------------0---0---2---0-2--|
---------------------------------|-------1-1-3--------------------|


  E.  S E.  S E.  S E  E     E  E  E  E  E  E  E  E   
--------------------------|--------------------------|
--------------------------|--------------------------|
------------0-0---2-2--2--|--2--2--2--2--2--2--2--2--|
--0---3-3-----------------|--------------------------|

                         ...E mais e mais e oh...

  E  S S  S  S S S S S S S E  E     E  S S S S S S S S S S S S E   
---------------------------------|--------------------------------|
---------------------------------|-----------------------5---5-7--|
--7----7-10-10---9---7-----------|-----------5---7---7------------|
-------------------------8-5-----|--5----5-8----------------------|


  E  S S S E  E  E  E  E  S    E  S S S S S S S S S S S S E   
----------------------------|--------------------------------|
--7------7------------------|--5-----------------------------|
-------7---7--------5--7----|-----------------------3---5----|
--------------5--8----------|-------3-3-3---6---6------------|


  S S S S S S S S S S S S E  E     E  S S S S S S S S S S S S S S  
--------------------------------|-----------------------5---------|
--5-------5---------------------|---------------5---7-------7-5---|
------------------------3-5-----|--5----5-8-8---------------------|
------3-------3---6-6-----------|---------------------------------|


  E  S S S S S S S S S S S S E     E  S S E  S S S S S S Q     
--------------------------------|-----------------------------|
--3-----------------------------|-----------------------------|
---------------0---0---2---0-2--|--7------7----7---5----------|
-------1-1-3--------------------|-------7--------------5-0----|


(Parte 04) Interlúdio:

  H        H           H        H    
--------------------|--------------------|----|
--------------------|--------------------|----|
--------------------|--------------------|----|
--0--------0--------|--0--------0--------|----|

    Iê re-lê re-iê re-lê Iê re-lê re-iê re-lê...


(Repete Parte 01 e Parte 02)


(Repete Refrão)


Final da música:
(continuação a partir do último compasso do refrão, antes do que seria o interlúdio)


  E  S S E  S S S S S S Q       E  S S S E  E  E  S  Q       W                  
-----------------------------|----------------------------|-------------------||
-----------------------------|-----------------5--5s-7----|-(7)---------------||
--7------7----7---5----------|-----------5--7-------------|-------------------||
-------7--------------5-0----|--5----5-8------------------|-------------------||


Duration Legend
---------------
W - whole
H - half
Q - quarter
E - 8th
S - 16th
T - 32nd
X - 64th
exibições 138
Composição: Tom Zé Colaboração e revisão:
  • Victor Cavallini

0 comentários

mostrar mais comentários

Conseguiu tocar?

1 tocaram 0 ainda não

Grave um vídeo tocando Dor e Dor e mande pra gente!

00:00 / 00:00
outros vídeos desta música
repetir qualidade Automático
Outros vídeos desta música
00:00 / 00:00
Automático
OK