Cifra Club

Dance Monkey

Tones And I

Cifra: Principal (violão e guitarra)
tom: A
[Intro] F#m  D  E  C#m

[TAB -Intro]

[Parte 1 De 2]
   F#m                 D
E|-2-2-2-2-2-2-2---2---2--2-2-2-2-2-2---2---|
B|-2-2-2-2-2-2-2---2---3--3-3-3-3-3-3---3---|
G|-2-2-2-2-2-2-2---2---2--2-2-2-2-2-2---2---|
D|---------------4-----0--------------0-----|
A|------------------------------------------|
E|-2----------------------------------------|

Parte 2 de 2
   E                    C#m
E|-0--0-0-0-0-0-0---0---4--4-4-4-4-4-4---4--|
B|-0--0-0-0-0-0-0---0---5--4-4-4-4-4-4---4--|
G|-1--1-1-1-1-1-1---1---6--6-6-6-6-6-6---6--|
D|----------------2--------------------6----|
A|----------------------4-------------------|
E|-0----------------------------------------|

[Primeira Parte]

[TAB - Primeira Parte]

[Parte 1 De 4]
   F#m               D
E|-2-2-2-2-2-2-2-2---2--2-2-2-2-2-2-2-------|
B|-2-2-2-2-2-2-2-2---3--3-3-3-3-3-3-3-------|
G|-2-2-2-2-2-2-2-2---2--2-2-2-2-2-2-2-------|
D|-------------------0------0-----0---------|
A|------------------------------------------|
E|-2-----2-----2----------------------------|

Parte 2 de 4
   E                  C#m
E|-0--0-0-0-0-0-0-0---4--4-4-4-4-4-4-4------|
B|-0--0-0-0-0-0-0-0---5--4-4-4-4-4-4-4------|
G|-1--1-1-1-1-1-1-1---6--6-6-6-6-6-6-6------|
D|------------------------------------------|
A|--------------------4------4-----4--------|
E|-0------0-----0---------------------------|

Parte 3 de 4
   F#m               D
E|-2-2-2-2-2-2-2-2---2--2-2-2-2-2-2-2-------|
B|-2-2-2-2-2-2-2-2---3--3-3-3-3-3-3-3-------|
G|-2-2-2-2-2-2-2-2---2--2-2-2-2-2-2-2-------|
D|-------------------0------0-----0---------|
A|------------------------------------------|
E|-2-----2-----2----------------------------|

Parte 4 de 4
   E     C#m
E|-0-----4----------------------------------|
B|-0-----5----------------------------------|
G|-1-----6----------------------------------|
D|------------------------------------------|
A|-------4----------------------------------|
E|-0----------------------------------------|

          F#m
They say: oh my God
                    D
I see the way you shine
           E
Take your hand, my dear, and place 
              C#m
Them both in mine
               F#m
You know you stopped me dead 
                    D
When I was passing by
           E
And now I beg to see you dance 
               C#m
Just one more time

[Pré-Refrão]

[TAb - Pré-Refrão]

[Parte 1 De 4]
   F#m                 D
E|-2-2-2-2-2-2-2---2---2--2-2-2-2-2-2---2---|
B|-2-2-2-2-2-2-2---2---3--3-3-3-3-3-3---3---|
G|-2-2-2-2-2-2-2---2---2--2-2-2-2-2-2---2---|
D|-----x-------x-4-----0----x-0-----x-0-----|
A|-----x-------x------------x-------x-------|
E|-2---x-2-----x------------x-------x-------|

Parte 2 de 4
   E                    C#m
E|-0--0-0-0-0-0-0---0---4--4-4-4-4-4-4---4--|
B|-0--0-0-0-0-0-0---0---5--4-4-4-4-4-4---4--|
G|-1--1-1-1-1-1-1---1---6--6-6-6-6-6-6---6--|
D|------x-------x-2----------x-------x-6----|
A|------x-------x-------4----x-4-----x------|
E|-0----x-0-----x------------x-------x------|

Parte 3 de 4
   F#m                 D
E|-2-2-2-2-2-2-2---2---2--2-2-2-2-2-2---2---|
B|-2-2-2-2-2-2-2---2---3--3-3-3-3-3-3---3---|
G|-2-2-2-2-2-2-2---2---2--2-2-2-2-2-2---2---|
D|-----x-------x-4-----0----x-0-----x-0-----|
A|-----x-------x------------x-------x-------|
E|-2---x-2-----x------------x-------x-------|

Parte 4 de 4
   E                    C#m
E|-0--0-0-0-0-0-0---0---4-------------------|
B|-0--0-0-0-0-0-0---0---5-------------------|
G|-1--1-1-1-1-1-1---1---6-------------------|
D|------x-------x-2-------------------------|
A|------x-------x-------4-------------------|
E|-0----x-0-----x---------------------------|

        F#m
Ooh, I see you, see you 
               D
See you every time
           E                      C#m
And oh my, I, I, I, I like your style
          F#m   
You, you make me, make me
                D
Make me wanna cry
           E
And now I beg to see you dance 
               C#m
Just one more time

[Refrão]

[TAB - Refrão]

[Parte 1 De 2]
E|-------x-----x-----x------------x-----x-----x-------|
B|-------x-----x-----x------------x-----x-----x-------|
G|-------x-----x-----x------------x-----x-----x-------|
D|---4---x---4-x---4-x---4----7---x---7-x---7-x----7--|
A|-------x-----x-----x------5---5-x-5---x-5---x--5----|
E|-2---2-x-2---x-2---x-2----------x-----x-----x-------|

Parte 2 de 2
E|-------x-----x-----x------------x-----x-----x-------|
B|-------x-----x-----x------------x-----x-----x-------|
G|-------x-----x-----x------------x-----x-----x-------|
D|---2---x---2-x---2-x---2----6---x---6-x---6-x----6--|
A|-------x-----x-----x------4---4-x-4---x-4---x--4----|
E|-0---0-x-0---x-0---x-0----------x-----x-----x-------|

So they say
Dance for me, dance for me 
Dance for me, oh, oh, oh
I've never seen 
Anybody do the things you do before
They say
Move for me, move for me
Move for me, ay-ay-ay
And when you’re done 
I'll make you do it all again

[Segunda Parte]

        F#m
I said: oh my God
                   D
I see you walking by
         E
Take my hands, my dear
                  C#m
And look me in my eyes
             F#m
Just like a monkey
                            D
I've been dancing my whole life
              E
And you just beg to see me dance 
               C#m   
Just one more time

[Pré-Refrão]

        F#m
Ooh, I see you, see you 
               D
See you every time
           E                      C#m
And oh my, I, I, I, I like your style
          F#m   
You, you make me, make me
                D
Make me wanna cry
           E
And now I beg to see you dance 
               C#m
Just one more time

[Refrão]

So they say
Dance for me, dance for me 
Dance for me, oh, oh, oh
I've never seen 
Anybody do the things you do before
They say
Move for me, move for me
Move for me, ay-ay-ay
And when you’re done 
I'll make you do it all again

So they say
 F#m
Dance for me, dance for me 
                      D
Dance for me, oh, oh, oh, oh-oh, oh-oh
            E
I've never seen 
                                C#m
Anybody do the things you do before

They say
 F#m
Move for me, move for me
                   D
Move for me, ay-ay-ay
                 E 
And when you’re done 
                        C#m
I'll make you do it all again

[Vocalização]

F#m        D        E  
Ooh, ooh, ooh, ooh, ooh
   C#m
Oh-oh, oh-oh, oh
F#m        D        E  
Ooh, ooh, ooh, ooh, ooh
C#m
Ooh, ah-ah, ah-ah

[Refrão]

So they say
 F#m
Dance for me, dance for me 
                      D
Dance for me, oh, oh, oh
            E
I've never seen 
                                C#m
Anybody do the things you do before

They say
 F#m
Move for me, move for me
                   D
Move for me, ay-ay-ay
                 E 
And when you’re done 
                        C#m
I'll make you do it all again

So they say
 F#m
Dance for me, dance for me 
                      D
Dance for me, oh, oh, oh, oh-oh, oh-oh
            E
I've never seen 
                                C#m
Anybody do the things you do before

They say
 F#m
Move for me, move for me
                   D
Move for me, ay-ay-ay
                 E 
And when you’re done 
                        C#m
I'll make you do it all again
Composição de Toni Watson
Colaboração e revisão:
  • Thiago Almeida
222 exibições
  • Simplificar cifra
    • ½ Tom
    • A
    • Bb
    • B
    • C
    • Db
    • D
    • Eb
    • E
    • F
    • F#
    • G
    • Ab
  • Adicionar à lista

    0 comentários

    Ver todos os comentários

    Conseguiu tocar?

    0 Tocaram 0 Ainda não

    Grave um vídeo tocando Dance Monkey e nos envie!

    00:00 / 00:00
    Outros vídeos desta música
    Repetir Qualidade Automático
    Outros vídeos desta música
    00:00 / 00:00
    Automático
    Capítulos
    • Tocando a Música
    • Acordes da Música
    • Tocando Introdução
    • Ensinando Introdução
    • Tocando Primeira Parte
    • Ensinando Primeira Parte
    • Tocando Pré-Refrão
    • Ensinando Pré-Refrão
    • Tocando Refrão
    • Ensinando Refrão
    • Tocando Segundo Refrão
    • Ensinando Ritmo Segundo Refrão
    • Encerramento

    Cifra Club Pro

    Aproveite o Cifra Club com benefícios exclusivos e sem anúncios
    Cifra Club Pro
    Aproveite o Cifra Club com benefícios exclusivos e sem anúncios
    OK