Cifra Club

Aprenda

Beijinho Doce

Tonico e Tinoco

Cifra: Completa (violão e guitarra)
Tom: C
(intro) C Bb F

(solo)
                   C           Bb                 F
E|----0--------|-----------|---------0--1--3--|------3--1--------|---------------------|
B|-1-----4--3--|--1--------|------------------|------------------|---------------------|
G|-------------|-----------|------------------|------------------|-------0--2---0------|
D|-------------|-----------|------------------|------------------|-----3------------3--|
A|-------------|-----------|------------------|------------------|---------------------|
E|-------------|-----------|------------------|------------------|---------------------|

     C                    Bb                                 F                            C#7
E|--------------------|---------------------------------|-----------------------------|---------1-|
B|--------------------|---------------------------------|-----------------------------|-----------|
G|---------0----------|---------------------------------|----------1---0-----------0--|---2-------|
D|--------------------|---0-------------------------0---|---3-------------3--0--3-----|-----------|
A|--------------------|--------3--------0--3--0--3------|-----------------------------|-----------|
E|--------------------|-------------3-------------------|-----------------------------|-----------|

              F            Bb                   C         Bb             F
Que beijinho doce que ela tem depois que beijei ela numca mais amei ninguém
              Bb                         G7        C              Bb
Que beijinho doce foi ela quem truxe de longe pra mim abraço apertado
           C                 F
suspiro dobrado de amor sem fim

(solo base) C Bb F C#7

              F#           B                    C#        B            F#
Que beijinho doce que ela tem depois que beijei ela umca mais amei ninguém
              B                           G#7       C#             B
Que beijinho doce foi ela quem trouxe de longe pra mim abraço apertado
           C#        F#        F  E7  D7
suspiro dobrado de amor sem fim
               G                C                    D                   C          G
Coração quem manda quando agente ama se estou junto dela sem dar um beijinho coração reclama
              C                     A7             D              C             D
Que beijinho doce foi ela quem troxe de longe pra mim abraço apertado suspiro dobrado
      G
De amor sem fim
              C                         A7         D              C
Que beijinho doce foi ela quem troxe de longe pra mim abraço apertado
           D          G
Suspiro dobrado de amor sem fim
            C              D           G
Abraço apertado suspiro dobrado de amor sem fim
            C              D                    G
Abraço apertado suspiro dobrado de amor sem fim.
Composição de Nhô Pai
Colaboração e revisão:
  • Guilherme Ferrari
3.802 exibições
    • ½ Tom
    • A
    • Bb
    • B
    • C
    • Db
    • D
    • Eb
    • E
    • F
    • F#
    • G
    • Ab
  • Adicionar à lista

    0 comentários

    Mostrar mais comentários

    Conseguiu tocar?

    1 Tocaram 0 Ainda não

    Grave um vídeo tocando Beijinho Doce e mande pra gente!

    00:00 / 00:00
    outros vídeos desta música
    repetir qualidade Automático
    Outros vídeos desta música
    00:00 / 00:00
    Automático
    OK