Cifra Club

Aenima

Tool

Cifra: Principal
exibições 2.286
Tom: D
Tuning: (D, A, D, G, B, E)

Intro (8x)
-----------------------|
-----------------------|
--------0--------------|
-2p0h2--0---2p0-2p0h2--|
-2p0h2------2p0-2p0h2--|
-2p0h2------2p0-2p0h2--|

Some people think that there was no guitar playing during the verse of the song. While
turning up the volume, me and my friends came up with this conclusion.

Verse (8x)
--------------------------------|
--x----x--x--x----x----x--x--x--|
--x----x--x--x----x----x--x--x--|
--x----x--x--x----x----x--x--x--|
--------------------------------|
--------------------------------|

This next part is p.m. all through out

"bull -   "                 "shit -   "
---------------------------|------------------------------|
---------------------------|----------0------------0------|
---------------------------|------------------------------|
---------------------------|------------------------------|
--2p0-2p0-2p0-2p0-2p0-2p0--|--2p0--2-----2p0-2p0-2----4p2-|
--2p0-2p0-2p0-2p0-2p0-2p0--|--2p0--2-----2p0-2p0-2----4p2-|

"three -     "               "ring____  "
----------------------------|------------------------------|
---------0------------------|----------------------0--0----|
---------0------------------|--------0-------------0--0----|
----------------------0-----|------------------------------|
--5p0-5----5p0-5p0-5----5p0-|--5p0-5----5p0-5p0-5----------|
--5p0-5----5p0-5p0-5----5p0-|--5p0-5----5p0-5p0-5----------|

"cir -     "                 "cus -     "
-------0------------0-------|--------0-------------0-------|
-------0------------0-------|--------0-------------0-------|
----------------------------|------------------------------|
-2-0-2----------------------|------------------------------|
---------2p0-2p0-2-----2p0--|--2p0-2----2p0-2p0-2-----4p0--|
---------2p0-2p0-2-----2p0--|--2p0-2----2p0-2p0-2-----4p0--|

"side -     "                 "show___of___"
-----------------------------|--------------0--------|
-----------------------------|--------------0----3---|
--------0-------------0------|--5----5p0h5--0----2---|
--------0-------------0------|--5----5p0h5--0----0---|
-5p0-5-----5p0-5p0-5----5p0--|--3----3p0h3--2----0---|
-5p0-5-----5p0-5p0-5----5p0--|-------------------0---|


Chorus
-----------------------------------------------------------|
-----------------------------------------------------------|
---4----4-----------4----4---------4---4-------------7---2-|
---2----2--x--x--x--2----2--x-x-x--2---2---x--x--x---5---0-|
---2----2--x--x--x--2----2--x-x-x--2---2---x--x--x---5---0-|
---2----2--x--x--x--2----2--x-x-x--2---2---x--x--x---5---0-|

-----------------------------------------------------------|
-----------------------------------------------------------|
--4---4----------4---4----------4---4----------5--5--2-2-2-|
--2---2--x--x--x-2---2-x--x--x--2---2--x--x--x-3--3--0-0-0-|
--2---2--x--x--x-2---2-x--x--x--2---2--x--x--x-3--3--0-0-0-|
--2---2--x--x--x-2---2-x--x--x--2---2--x--x--x-3--3--0-0-0-|

-----------------------------------------------------------|
-----------------------------------------------------------|
-4---4-----------4---4-----------4---4----------7---2-2-2--|
-2---2--x--x--x--2---2--x--x--x--2---2--x--x--x-5---0-0-0--|
-2---2--x--x--x--2---2--x--x--x--2---2--x--x--x-5---0-0-0--|
-2---2--x--x--x--2---2--x--x--x--2---2--x--x--x-5---0-0-0--|

-----------------------------------------------------------|
-------------------------------------------------3--3--3---|
-4---4----------4---4----------4---4-------------2--2--2---|
-2---2--x--x--x-2---2--x--x--x-2---2--x--x--x/10-0--0--0---|
-2---2--x--x--x-2---2--x--x--x-2---2--x--x--x/10-0--0--0---|
-2---2--x--x--x-2---2--x--x--x-2---2--x--x--x/10-0--0--0---|

------------------------------------------------|
------------------------------------------------|
------------------------------------------------|
------------------------------------------------|
--2--(2)-----/5---0---2--------(2)---/5----0----|
--2--(2)-----/5---0---2--------(2)---/5----0----|

Interlude  w/Flanger
-------------------------------|---------------------------|
-------------------------------|---------------------15\-3-|
------2--2--2------------------|-4-4-4-4(4)/12-12-12-15\-2-|
-0----0--0--0--10-10-10--------|-2-2-2-2(2)/12-12-12-15\-0-|
-0----0--0--0--10-10-10--12----|-2-2-2-2(2)/12-12-12-15\-0-|
-0----0--0--0--10-10-10----12--|-2-2-2-2(2)/12-12-12-15\-0-|

---------------------------|-0-0-0-0-----------------------|
-3------3-3-3--------------|-0-0-0-0-----------------------|
-2------2-2-2--------------|-4-4-4-4-----------------------|
-0--0---0-0-0-10-10-10-----|-2-2-2-2--2/10-10-10-12--------|
-0--0---0-0-0-10-10-10-12\-|-2-2-2-2--2/10-10-10-12--------|
-0--0---0-0-0-10-10-10-----|-2-2-2-2--2/10-10-10-12--------|

----------------------------|-0--0-0-0-0/-------------------|
-3--3-3-3-3-----------------|-0--0-0-0-0/-13-13-13-15-15-15-|
-2--2-2-2-2-12-12-12--------|-1--1-1-1-1/-12-12-12-14-14-14-|
-0--0-0-0-0-12-12-12-12\----|-2--2-2-2-2/-10-10-10-12-12-12-|
-0--0-0-0-0-12-12-12-12\----|-2--2-2-2-2/-------------------|
-0--0-0-0-0-12-12-12-12|----|-2--2-2-2-2/-------------------|

                                  Let ring through out
----------------------------------0-------------------|
-15-15-15-15-15-13-13-13-15-13\---0-------------------|
-14-14-14-14-14-12-12-12-14-12\---4-------------------|
-12-12-12-12-12-10-10-10-12-10\---2-------------------|
----------------------------------2-------------------|
----------------------------------2-------------------|

starting with "some say a comet___"
-----------------------------------------------------------|
-----------------------------------------------------------|
-----------------------------------------------------------|
9-----------7----7----10---------9-------9-------7------5--|
-----------------------------------------------------------|
-----------------------------------------------------------|

"dumb founded dipshits_____"
-------------------------------------------|
-------------------------------------------|
---4---------------------------------------|
---------5---(5)\---------2----------------|
--------------------------2----------------|
-------------------------------------------|

(2x)
-------------------------------------------|
-------------------------------------------|
-------------------------------------------|
--2/--5-----------------------5\2----------|
--2/--5-----------------------5\2----------|
--2/--5-----------------------5\2----------|

before solo                      |"it ought to be___"
-------------------------------------------------------|
-------------------------------------------------------|
--------(5)--------------------------------------------|
-------2/5---------------------------------------------|
-------2/5-------------------------3////5--------------|
-------2/5---------------------------------------------|

Solo
---------------------------------------------------------|
---------------------------------------------------------|
---------------------------------------------------------|
------------14\-------------14-------------14--(14)\12---|
12/14-12/14-----12/14-12/14----12/14-12/14---------------|
---------------------------------------------------------|
                             let ring--------------------|
--------------------------|------------------------------|
--------------------------|------------------------------|
--------------------------|-12----------------12----12---|
-----------14---14\11-----|-12----------------------12---|
-12/-12/14----------------|------------------------------|
--------------------------|------------------------------|

-----------------------------------|
---------------------------12\-----|
-(12)\------------12---------------|
-(12)\-----------------12----------|
--------12---12--------------------|
-----------------------------------|

-----------------------------------------------------------|
-----------------------------------------------------------|
-----------------------------------------------------------|
-------------14\----------14---14-(14)\---14--14--14-------|
-12/14-12/14----12/14--14-----------------------------14---|
-----------------------------------------------------------|

-----------------------------------------------------------|
-----------------------------------12---12----(12)---------|
-12---12/9--14---14\---------------12---12----(12)---------|
----------------------12----12--12-------------------------|
-----------------------------------------------------------|
-----------------------------------------------------------|

--------------------------------------12-------(12)\--|
----12\---------12\---12\---12\-------12-------(12)\--|
----12\---------12\---12\---12\-------12-------(12)\--|
--------12-(12)\12\---12\---12\-----------------------|
------------------------------------------------------|
------------------------------------------------------|

"Learn to swim__"  Play the first two times.
-----------------------------------------------------------|
-----------------------------------------------------------|
-----------------------------------------------------------|
-----------------------------------------------------------|
-2-2-2-2-2-2-2-2-2-2-2-2-2-2-2-2-2-2-2-2-2-2-2-2-2-2-2-2-2-|
-2-2-2-2-2-2-2-2-2-2-2-2-2-2-2-2-2-2-2-2-2-2-2-2-2-2-2-2-2-|

-----------------------------0-0-0-0-0-0---------|
-------------------------0-0-0-0-0-0-0-0---8-----|
-------------------------4-4-4-4-4-4-4-4/--7-----|
-------------------2-2-2-2-2-2-2-2-2-2-2/--5-----|
-2-2-2-2-2-2-2-2-2-2-2-2-2-2-2-2-2-2-2-2/--------|
-2-2-2-2-2-2-2-2-2-2-2-2-2-2-2-2-2-2-2-2/--------|

Third part "Fuck your tatoos____"
-x-x-x-x-x-x-x-x-x-x-x-x-x-x-x-x-x-x-x-x-x-x-x-x-x-x-x-x-x-|
-x-x-x-x-x-x-x-x-x-x-x-x-x-x-x-x-x-x-x-x-x-x-x-x-x-x-x-x-x-|
-x-x-x-x-x-x-x-x-x-x-x-x-x-x-x-x-x-x-x-x-x-x-x-x-x-x-x-x-x-|
-----------------------------------------------------------|
-----------------------------------------------------------|
-----------------------------------------------------------|

Play the same part as the first two and then we move on to
"fuck smiley glad hands___"
----------------------------------------------------------|
---8--------8------------8-----8------------8-8-8-8-8-8-/-|
---7---7--7-7------------7-----7--7-----7---7-7-7-7-7-7-/-|
---5---5--5-5----------5-5--5--5--5-----5---5-5-5-5-5-5-/-|
---5---5--5------------5----5-----5-----5---5-5-5-5-5-5-/-|
---5---5--5------------5----5-----------------------------|

"Fuck these dysfunctional___"
-----------------------------------------------------------|
-20-20-20-20-20-20-20-20-20-20-0--8-8-8-8-8/20-20-20-20-20-|
-19-19-19-19-19-19-19-19-19-19-0--7-7-7-7-7/19-19-19-19-19-|
-17-17-17-17-17-17-17-17-17-17-0--5-5-5-5-5/17-17-17-17-17-|
-----------------------------------------------------------|
-----------------------------------------------------------|

-----------------------------------------------------------|
-5--5/-17-17-17-17-17\-5-5-5-5-5/17-17-17-17-17------------|
-4--4/-16-16-16-16-16\-4-4-4-4-4/16-16-16-16-16------------|
-2--2------------------2-2-2-2-2------------------5--2p0---|
-2--2------------------2-2-2-2-2------------------5--2p0---|
-2--2------------------2-2-2-2-2------------------5--2p0---|

                                "oh________cuz I'm praying"
-----------------------------------------------------------|
-5/17-17-17-17-----------5-5-5-5--5/17--17-17\8------------|
-4/16-16-16-16-----------4-4-4-4--4/16--16-16\7------------|
-2--------------0--0--0--2-2-2-2--2-----------7------------|
-2--------------0--0--0--2-2-2-2--2-----------5------------|
-2-----------------------2-2-2-2--2------------------------|

"mom, please flush it all away____"
------------------------------------------------------------|
------------------------------------------------------------|
------------------------------------------------------------|
------------------------------------------------------------|
--14~~~~~14--14-14--14--14/12-12~~~~12--12-12--12--12-12-12-|
------------------------------------------------------------|

"see it go right in and down___"
-----------------------------------------------------------|
-----------------------------------------------------------|
-----------------------------------------------------------|
-10~~~~~~~10--10-10------10-10-10--9-9~~~~~~9--9-9^-9^-9^--|
-----------------------------------------------------------|
-----------------------------------------------------------|

                                      "away______"
-----------------------------------------------------------|
-----------------------------------------------------------|
-----------------------------4--------4-4-4-4-4------------|
-9\7--7---7-7---7----7--7--5-----5-5--5-5-5-5-4------------|
-----------------------------------------------------------|
-----------------------------------------------------------|

Outro  (play 3 times)
-----------------------------------------------------------|
-----------------------------------------12\---------------|
-----------------------------------------11\---------------|
-2--2--2p0-0--0-0-0--5--5---0--0-0--9-9-9-9\--0--0--0--9---|
-2--2--2p0-0--0-0-0--5--5---0--0-0--9-9-9-9\--0--0--0--9---|
-2--2--2p0-0--0-0-0--5--5---0--0-0--9-9-9-9\--0--0--0--9---|

(continued)
-----------------------------|
-----------12--12------------|
-----------11--11------------|
---9--9--9--9---9--0--0--0---|
---9--9--9--9---9--0--0--0---|
---9--9--9--9---9--0--0--0---|

"my friend____"             With bar
---------------------------------------------------|
----5------5------3--3---3/8--8~~~~8\-3----3--3--3-|
----4------4------2--2---2/7--7~~~~7\-2----2--2--2-|
----2------2------0--0---0/5--5~~~~5\-0----0--0--0-|
----2------2------0--0---0/5--5~~~~5\-0----0--0--0-|
----2------2------0--0---0/5--5~~~~5\-0----0--0--0-|

(4x)
------------------------------------|
-----------------12\----------------|
-----------------11\----------------|
-9-----9--9--9----9\---0--0--0------|
-9-----9--9--9----9\---0--0--0------|
-9-----9--9--9----9\---0--0--0------|

Ending           (8x)                (3x)
------------------------|---------------------|-----------|
------------------------|---------------------|-----------|
------------------------|---2--------2--2---2-|-2---------|
--9-----9------9^-------|---6--------6--6---6-|-6---------|
--9-----9------9^-------|---5-----5-----5---5-|-5---------|
--9-----9------9^-------|---------------------|-----------|
Acordes para:
    Colaboração e revisão:
    • Taino Vieira

    0 comentários

      mostrar mais comentários

      Conseguiu tocar?

      0tocaram0ainda não

      Grave um vídeo tocando Aenima e mande pra gente!

      00:00 / 00:00
      outros vídeos desta música
      repetirqualidadeautomática
      Outro vídeos desta música
        00:00 / 00:00
        automática
        OK