Cifra Club

Mamãe

Toquinho

Cifra: Principal (violão e guitarra)
Tom: G
Ela é a dona de tudo

--------------5----------------------------------------------------------------------
----------0---6-------0-------0---2---0----------------------------------------------
--2-----------6-----------2---------------2---2--------------------------------------
--4-----------5-----------4---------------4---4--------------------------------------
--5---5-------0---0-------5-----------5----------------------------------------------
-------------------------------------------------------------------------------------



Ela é a rainha do lar

------------------0------------------------------------------------------------------
------0---2---3-------2---0----------------------------------------------------------
--2---------------------------0---0-------0---0--------------------------------------
--4-----------0---------------2---2-------2---2--------------------------------------
--5----------------------------------------------------------------------------------
--------------------------0-----------0----------------------------------------------



Ela vale mais para mim

-------------------------------------------------------------------------------------
--0-------2---3-------2---0---2---3---2----------------------------------------------
------0-----------0-----------------------0------------------------------------------
------2-----------2-----------------------2------------------------------------------
--------------------------------------0----------------------------------------------
--0-----------0-----------0----------------------------------------------------------



Que o céu, que a terra, que o mar

------0-------0---1---1---1---2------------------------------------------------------
--2---------------2-----------3---3---3-------3---3----------------------------------
----------0-------0-----------2---2---2-------2---2----------------------------------
----------2-------------------0-----------0------------------------------------------
------0-----------0------------------------------------------------------------------
-------------------------------------------------------------------------------------



Ela é a palavra mais linda

--5---5---5---5---3---2---2-----------0----------------------------------------------
--4-----------4-----------0---0---0-------0------------------------------------------
--5-----------5-----------0---0---0-------0------------------------------------------
--4-----------4-----------0-----------0----------------------------------------------
-------------------------------------------------------------------------------------
-------------------------------------------------------------------------------------



Que um dia o poeta escreveu

--0---3---3---3---3---2---0---2------------------------------------------------------
------2-----------2-----------3---3---3-------3---3----------------------------------
------3-----------3-----------2---2---2-------2---2----------------------------------
------2-----------2-----------0-----------0------------------------------------------
-------------------------------------------------------------------------------------
-------------------------------------------------------------------------------------



Ela é o tesouro que o pobre

------------------0---2---2-----------0----------------------------------------------
------0---2---3-----------3---3---3-------3------------------------------------------
--2-----------------------1---1---1-------1------------------------------------------
--0-----------0-----------2-----------2----------------------------------------------
-------------------------------------------------------------------------------------
-------------------------------------------------------------------------------------



Das mãos do Senhor recebeu

--0---2---0---------------0----------------------------------------------------------
------3-------3---2---3-------3------------------------------------------------------
------1-----------0-----------2------------------------------------------------------
------2-----------------------0------------------------------------------------------
-------------------------------------------------------------------------------------
-------------------------------------------------------------------------------------




Mamãe, mamãe, mamãe

--1---2-------1---2-------1---2----------------------------------------
----------3-----------3-----------3---3-------3------------------------
------2---2-------2---2-------2---2---2-------2------------------------
------0-----------------------0-----------0----------------------------
------------------0----------------------------------------------------
-----------------------------------------------------------------------



Tu és a razão dos meus dias

-----------------------------------------------------------------------
----------0---2---3-------3---0----------------------------------------
--2---2-----------4---4-----------2---2--------------------------------
------4-----------5---------------4---4--------------------------------
------5-----------0-----------5----------------------------------------
-----------------------------------------------------------------------



Tu és feita de amor e esperança

------------------------------0----------------------------------------
----------0---2---2---2---3-------3---0-------------------0------------
------2-------------------1---------------0---0-------2----------------
--------------0-----------3---------------0---0-------1----------------
--5-----------------------------------------------2--------------------
--------------------------------------0--------------------------------



Ai, ai, ai, mamãe

--3-------2---3-------2---3--------------------------------------------
--0---0-------4---4-------0---0---0------------------------------------
--0---0-------4---4-------0---0---0------------------------------------
-----------------------------------------------------------------------
--------------2--------------------------------------------------------
--0-----------------------0--------------------------------------------



Eu cresci o caminho perdi

------2---3---3---3---3---2---3---0------------------------------------
----------2-----------0-----------2---2---2----------------------------
----------0-----------0-----------0---0---0----------------------------
----------2-----------------------2------------------------------------
----------0-----------0-----------0------------------------------------
--0--------------------------------------------------------------------



Volto a ti e me sinto criança

--------------0---0---0---0--------------------------------------------
------2---3---0-----------0---3---2---0--------------------------------
--------------0-----------0---------------2---2-------2----------------
--------------4---------------------------4---4-------4----------------
--0-----------2-----------------------5-----------5--------------------
--------------0-----------0--------------------------------------------



Mamãe, mamãe, mamãe

--1---2-------1---2-------1---2----------------------------------------
----------3-----------3-----------3---3--------------------------------
------2---2-------2---2-------2---2---2--------------------------------
------0-----------0-----------0----------------------------------------
-----------------------------------------------------------------------
-----------------------------------------------------------------------




Eu te lembro o chinelo na mão

--2---3---5---5---5---5---2---0----------------------------------------
----------4-----------4---3-------4------------------------------------
----------5-----------5---3-----------2---2----------------------------
----------4-----------4---------------4---4----------------------------
--------------------------3-------2------------------------------------
-----------------------------------------------------------------------



O avental todo sujo de ovo

----------0---2---2---2---2---0---2---3---3----------------------------
------4-------4-----------4---------------0---0---0--------------------
--------------2-----------2---------------0---0---0--------------------
-----------------------------------------------------------------------
--2-----------2-----------2--------------------------------------------
------------------------------------------0----------------------------



Se eu pudesse eu queria outra vez, mamãe,

--0---2---3---3---3---3---2---3---5---2--------------------------------
----------3-----------3-----------3-------3---3------------------------
----------3-----------3-----------2-----------2------------------------
----------3-----------3-----------0-----------4------------------------
----------3-----------3-----------------------2------------------------
-----------------------------------------------------------------------



Começar tudo, tudo, de novo

------0---2---0-------0------------------------------------------------
--2-------3-------3---2---3---2---3---3--------------------------------
----------1-----------0-----------3---2--------------------------------
----------2-----------2-----------2---0--------------------------------
----------------------0-----------3------------------------------------
-----------------------------------------------------------------------


exibições 1.980
Acordes para:
    Composição: Herivelto Martins Colaboração e revisão:
    • Edson Nogueira

    0 comentários

    mostrar mais comentários

    Conseguiu tocar?

    0 tocaram 0 ainda não

    Grave um vídeo tocando Mamãe e mande pra gente!

    00:00 / 00:00
    outros vídeos desta música
    repetir qualidade Automático
    Outros vídeos desta música
    00:00 / 00:00
    Automático
    OK