Cifra Club

War Is Hell

Toxic Holocaust

Cifra: Principal (violão e guitarra)
tom: G
Play Twice
|--------------------------------------------------------------------|
|--------------------------------------------------------------------|
|--------------------------------------------------------------------|
|-9-----------------10-10-10-9-----------10-10-10-9-9-9-7-7-7-5-5-5--|
|-7-----------------8--8--8--7-----------8--8--8--7-7-7-5-5-5-3-3-3--|
|---0-0-0-000-0-000------------000-0-000-----------------------------|

Play Twice
|--------------------------------------------------------------------|
|--------------------------------------------------------------------|
|--------------------------------------------------------------------|
|-9-----9-----9-----10-10-10-9---------10-10-10-9-9-9-7-7-7-5-5-5----|
|-7-----7-----7-----8--8--8--7---------8--8--8--7-7-7-5-5-5-3-3-3----|
|---000---000---000------------0-0-000-------------------------------|

Verse: 3 Times
|--------------------------------------------------------------------|
|--------------------------------------------------------------------|
|--------------------------------------------------------------------|
|-9-----------------10-10-10-9-----------10-10-10-9-9-9-7-7-7-5-5-5--|
|-7-----------------8--8--8--7-----------8--8--8--7-7-7-5-5-5-3-3-3--|
|---0-0-0-000-0-000------------000-0-000-----------------------------|

Then play this once
|--------------------------------------------------------------------|
|--------------------------------------------------------------------|
|--------------------------------------------------------------------|
|-9-----------------10-10-10-9-----------7/9--9-9--------------------|
|-7-----------------8--8--8--7-----------5/7--7-7--------------------|
|---0-0-0-000-0-000------------000-0-000-----------------------------|

Chorus: Play Once
|--------------------------------------------------------------------|
|--------------------------------------------------------------------|
|--------------------------2--------------------------5-5-5-5--------|
|--9/10--7------5------------3-----9/10--7------5-----3-3-3-3--------|
|--7/8---5-0-0--3--0-0-3-5---------7/8---5-0-0--3-0-0----------------|
|0-------------------------------0-----------------------------------|

|--------------------------------------------------------------------|
|--------------------------------------------------------------------|
|--------------------------2----------------------------5-7----------|
|--9/10--7------5------------3-----9/10--7------5-------3-5----------|
|--7/8---5-0-0--3--0-0-3-5---------7/8---5-0-0--3-0-0----------------|
|0-------------------------------0-----------------------------------|

Play Twice
|--------------------------------------------------------------------|
|--------------------------------------------------------------------|
|--------------------------------------------------------------------|
|-9-----9-----9-----10-10-10-9---------10-10-10-9-9-9-7-7-7-5-5-5----|
|-7-----7-----7-----8--8--8--7---------8--8--8--7-7-7-5-5-5-3-3-3----|
|---000---000---000------------0-0-000-------------------------------|

Verse: 3 Times
|--------------------------------------------------------------------|
|--------------------------------------------------------------------|
|--------------------------------------------------------------------|
|-9-----------------10-10-10-9-----------10-10-10-9-9-9-7-7-7-5-5-5--|
|-7-----------------8--8--8--7-----------8--8--8--7-7-7-5-5-5-3-3-3--|
|---0-0-0-000-0-000------------000-0-000-----------------------------|

Then play this once
|--------------------------------------------------------------------|
|--------------------------------------------------------------------|
|--------------------------------------------------------------------|
|-9-----------------10-10-10-9-----------7/9--9-9--------------------|
|-7-----------------8--8--8--7-----------5/7--7-7--------------------|
|---0-0-0-000-0-000------------000-0-000-----------------------------|

Chorus: Play Once
|--------------------------------------------------------------------|
|--------------------------------------------------------------------|
|--------------------------2--------------------------5-5-5-5--------|
|--9/10--7------5------------3-----9/10--7------5-----3-3-3-3--------|
|--7/8---5-0-0--3--0-0-3-5---------7/8---5-0-0--3-0-0----------------|
|0-------------------------------0-----------------------------------|

|--------------------------------------------------------------------|
|--------------------------------------------------------------------|
|--------------------------2----------------------------5-7----------|
|--9/10--7------5------------3-----9/10--7------5-------3-5----------|
|--7/8---5-0-0--3--0-0-3-5---------7/8---5-0-0--3-0-0----------------|
|0-------------------------------0-----------------------------------|

|---|
|---|
|-2-| 
|-2-|
|-0-|
|---|

Play Twice
|--------------------------------------------------------------------|
|--------------------------------------------------------------------|
|-----2----3----2-----5--3-------2----3----2-------------------------|
|-----2----3----2-----5--3-------2----3----2-----3--5----------------|
|-0-0--0-0--0-0--0-0--3--1---0-0--0-0--0-0--0-0--3--5----------------|
|------------------------------------------------1--3----------------|

Play Four Times
|--------------------------------------------------------------------|
|--------------------------------------------------------------------|
|-2---------------------2--5-3-2------------------------2------------|
|-2---------------------2--5-3-2------------------------2------3-5---|
|-0-0-0-0-0-0-0-0-0-0-0--------0--0-0-0-0-0-0-0-0-0-0-0-0-0-0--3-5---|
|--------------------------------------------------------------1-3---|

Play Twice
|--------------------------------------------------------------------|
|--------------------------------------------------------------------|
|--------------------------------------------------------------------|
|-9-----9-----9-----10-10-10-9---------10-10-10-9-9-9-7-7-7-5-5-5----|
|-7-----7-----7-----8--8--8--7---------8--8--8--7-7-7-5-5-5-3-3-3----|
|---000---000---000------------0-0-000-------------------------------|

Verse: 3 Times
|--------------------------------------------------------------------|
|--------------------------------------------------------------------|
|--------------------------------------------------------------------|
|-9-----------------10-10-10-9-----------10-10-10-9-9-9-7-7-7-5-5-5--|
|-7-----------------8--8--8--7-----------8--8--8--7-7-7-5-5-5-3-3-3--|
|---0-0-0-000-0-000------------000-0-000-----------------------------|

Then play this once
|--------------------------------------------------------------------|
|--------------------------------------------------------------------|
|--------------------------------------------------------------------|
|-9-----------------10-10-10-9-----------7/9--9-9--------------------|
|-7-----------------8--8--8--7-----------5/7--7-7--------------------|
|---0-0-0-000-0-000------------000-0-000-----------------------------|

Play Twice
|--------------------------------------------------------------------|
|--------------------------------------------------------------------|
|--------------------------------------------------------------------|
|--9/10--7------5----------------9/10--7------5----------------------|
|--7/8---5-0-0--3--0-0--4-5-6----7/8---5-0-0--3--0-0-7-6-5-----------|
|0----------------------2-3-4--0---------------------5-4-3-----------|

Play Once
|-------------------------|
|-------------------------|
|-------------------------|
|-10---9---7---5----------|
|-8----7---5---3----------|
|-------------------------|

|---------------------------------------------------|
|---------------------------------------------------|
|2------------2------------2------------3-3-3-3/5\3-|
|2------------2------------2------------3-3-3-3/5\3-|
|0-000-0-0-0--0-000-0-0-0--0-000-0-0-0--1-1-1-1/3\1-|
|---------------------------------------------------|

|----------------------------------------------------|
|----------------------------------------------------|
|-2------------2------------2------------------------|
|-2------------2------------2------------3-3-3-3/5\3-|
|-0-000-0-0-0--0-000-0-0-0--0-000-0-0-0--3-3-3-3/5\3-|
|----------------------------------------1-1-1-1/3\1-|

|-----|
|-----|
|--2--|
|--2--|
|--0--|
|-----|
00:00 / 00:00
Outros vídeos desta música
Repetir
Outros vídeos desta música
Composição de Joel Grind
Colaboração e revisão:
  • Everton Souza
447 exibições
    • ½ Tom
    • A
    • Bb
    • B
    • C
    • Db
    • D
    • Eb
    • E
    • F
    • F#
    • G
    • Ab
  • Adicionar à lista

    0 comentários

    Ver todos os comentários

    Entre para oCifra Club PRO

    Tenha acesso a benefícios exclusivos no App e no Site

    • Chega de anúncios

    • Prioridade de compra em lançamentos

    • Mais recursos no app do Afinador

    • Atendimento Prioritário

    • Descontos nos produtos Cifra Club

    • Ajude a produzir mais conteúdo

    00:00 / 00:00

    Cifra Club Pro

    Aproveite o Cifra Club com benefícios exclusivos e sem anúncios
    Cifra Club Pro
    Aproveite o Cifra Club com benefícios exclusivos e sem anúncios
    OK