Cifra Club

Aprenda

Again

Tragicômico

Cifra: Principal (violão e guitarra)
tom: G
[Intro] Em  D  C  B7

    D2
E|-0---0-----0-----0------|
B|--3----3-----3-----3----|
G|---2-----2-----2-----2--|
D|------------------------|
A|------------------------|
E|------------------------|

E|-----------------------------------------------------------------------7|
B|------8-7---------8-7-8/10-8-7-----------8-7---------8-7-----------------8|
G|----7-----7-----7--------------8-----7-------7-----7-----8^^^8^^--8/9------9|
D|-/9----------/9-------------------/9------------/9------------------|
A|--------------------------------------------------------------------|
E|--------------------------------------------------------------------|

Em        D        C
 E eu vou insistir para seguir os meus sonhos vou até o fim
Em        D          C
Mesmo que for passar por pessoas cruéis que querem me impedir

Em                        D
Não são lembranças que me fazem seguir
        C
É muito mais e eu vou alcançar o céu que me deixou
Em                    D
Seja mais forte, pare de lamentar
          C
Até porque tudo vai mudar e até você mudou
Em
Num labirinto sem fim eu me perco
Em
Entre emoções eu não vejo a saída
Em
Olhe pra frente e esqueça seus erros
C           D
Tá esperando o quê?
Em
E num instante todo mundo some
Em
Eu fico a sós encarando os meus medos
Em
Tento fugir, mas acabo lembrando
C         D
Tudo que eu faço

C                   D
Vem pra cá, me segue

Você já sabe
  Em                 A     B
O motivo de estarmos neste lugar
   C           D               Em
Chegamos antes, mas ainda temos que ficar
    A        B
No meio do escuro
  C               D
Como eu queria que a vida passasse
  Em                          A     B
E levasse tudo o que deixou (é meu caminho)
     C
Já é normal
D
Viver sentindo toda essa dor

( Em )

Em         D
Quero me desculpar

C
Naquele momento eu não soube o que dizer

Em              D          C
Eu te preocupei, mas tente entender que nunca foi por querer

Em                        D
E tudo aquilo acontecendo pode mudar
                C
Eu já tô vendo como será quando eu me levantar
Em
Você não tá me entendendo
D                        C
Isso porque só tá vendo com o olhar de quem não despertou

Em
Não acredite em tudo que ouve
Em
Agora eu sei que nem sempre é verdade
Em
São amigos, mas contam mentiras
C          D
Se for pra te convencer
Em
O coração já está irritado
Em
Sangue queima e te consome
Em
Não vou fugir, pois acabo lembrando
C    D
Tudo que eu faço

C                   D
Vem pra cá, me segue

Você já sabe
Em                        A      B
O motivo que me dá vontade de gritar
C               D               Em
Chegamos antes, mas ainda temos que ficar
    A        B
No meio do escuro
C                  D
Sempre te agradeço por me dar forças
Em                              A     B
Pra lembrar de tudo que passou (é meu caminho)
C
Eu sigo em frente
D
Já me acostumei toda essa dor

F            G                Am
Você já sabe tudo o que passou
F               G            Am
E essa história não vai mais voltar
F            D
Vou gritar até que o mundo acabe
  C          D
Nem que for só pra te despertar
       Em
O sol já vai nascer, sol já vai nascer

( D#  F  Gm )
( D#  F  D  D9-  D )

C              D
Como eu queria que a vida passasse
Em
E levasse tudo o que deixou
C                      D
Tenho tantas lembranças
Em
Que eu queria poder reviver e ficar
A         B
Mas vamos de novo

   C                D
Vem pra cá, me segue

Você até já sabe
  Em                  A       B
O motivo que me dá vontade de gritar
C               D                  Em
Chegamos antes, mas ainda temos que ficar
   A       B
No meio do escuro
  C                   D
Eu sempre te agradeço por me dar forças
Em                              A     B
Pra lembrar de tudo que passou (é meu caminho)
   C
Já é normal
D
Viver sentindo toda essa dor

[Solo]

E|-----------------------------------------------------------------------7----------|
B|------8-7---------8-7-8/10-8-7-----------8-7---------8-7-----------------8--------|
G|----7-----7-----7--------------8-----7-------7-----7-----8^^^8^^--8/9------9|
D|-/9----------/9-------------------/9------------/9--------------------------------|
A|----------------------------------------------------------------------------------|
E|----------------------------------------------------------------------------------|
Composição de Wagner Thomazoni
Colaboração e revisão:
  • King
  • Taveira Taveira
  • Jonathan Willian
5.194 exibições
    • ½ Tom
    • A
    • Bb
    • B
    • C
    • Db
    • D
    • Eb
    • E
    • F
    • F#
    • G
    • Ab
  • Adicionar à lista

    0 comentários

    Ver todos os comentários

    Conseguiu tocar?

    2 Tocaram 2 Ainda não

    Grave um vídeo tocando Again e nos envie!

    00:00 / 00:00
    Outros vídeos desta música
    Repetir Qualidade Automático
    Outros vídeos desta música
    00:00 / 00:00
    Automático

    Cifra Club Pro

    Aproveite o Cifra Club com benefícios exclusivos e sem anúncios
    Cifra Club Pro
    Aproveite o Cifra Club com benefícios exclusivos e sem anúncios
    OK