Cifra Club

Aprenda

Rain

Tragicômico

Cifra: Principal (violão e guitarra)
tom: E
E|------0-----------0-----------0----------|
B|--------4-----------4-----------4--------|
G|---4------4----4-----4----4--------------|
D|-----------------------------------------|
A|-4-----------4----------4----------------|
E|-----------------------------------------|

E|--------------------------------7--------|
B|-9-9-7-9---9---9---9-9-7-9----9---9-7----|
G|---------9---8--------------9------------|
D|-----------------------------------------|
A|-----------------------------------------|
E|-----------------------------------------|   2x

E|-----7------7----------------------------|
B|---7---9--7---9--------------------------|
G|-9---------------------------------------|
D|-----------------------------------------|
A|-----------------------------------------|
E|-----------------------------------------|

Parte 1
E|-----0----------0----------0-------------|
B|-------4----------4----------4-----------|
G|---4-----4----4-----4----4-----4---------|
D|-----------------------------------------|
A|-4----------0----------2-----------------|
E|-----------------------------------------|
Parte 2
E|-----0---------0----------0--------------|
B|-------4---------4----------4------------|
G|---4-----4---4-----4----4-----4----------|
D|-----------------------------------------|
A|-----------------------------------------|
E|-0---------2----------4------------------|
Parte 3
E|-----0-------4---------------------------|
B|-------4-----4---------------------------|
G|---4-----4---4---------------------------|
D|-----------------------------------------|
A|-0-----------4---------------------------|
E|-----------------------------------------|

                C#m
O mês nasceu tão cinza
              A
Mal vejo para onde vou
B                  E
A verdade já não está aqui
F#m
Tão perto a gente está
G#m
E aqui neste lugar
A                                 C#m
O seu calor não vai mais me esquentar

                C#m
Então você me disse
              A
Que não importa aonde for
B                  E
Esse adeus forçado vai ficar
F#m
Tentou me consolar
G#m
Ao dizer que eu vou ficar
A                                 C#m
Bem até depois de partir

A
Eu já cansei de ouvir
G#m             C#m
Tudo que você tem pra me falar
A            B                 E
E não posso mais perdoar o que eu fiz
A
Isso vai não vai parar
G#m             C#m
Sinto que também não vai me conter
A                      G#m
Eu vou te ver quando o céu abrir

Passagem:

E|--------------------------------|
B|--------------------------------|
G|--------------------------------|
D|--------------------------------|
A|----3-4-6-----------------------|
E|--4-----------------------------|

        A    G#m                  C#m
Então será que algum dia a chuva para?
       F#m   B                 C#m
E o frio, que chegou e não quer me deixar
        A       G#m             C#m
Por que será que a chuva insiste em vir onde estou?
F#m   G#m            A     B         A
Eu que nem sei mais fugir de onde estou

                C#m
Por mais que a gente tente
              A
Não tem como deixar pra lá
B                  E
Estamos presos no passado
F#m
Futuro vai ficar
G#m
Parado em seu lugar
A                                 C#m
E o tempo só vai atrapalhar

A
Você sempre esteve lá
G#m             C#m
Pra me ajudar a parar toda essa dor
A            B                 E
E assim eu pude começar de novo
A
Eu sempre vou chorar
G#m             C#m
Ao lembrar do carinho e do amor
A                      G#m
Que não vão voltar pois eu te perdi

        A    G#m                  C#m
Eu não vou conseguir perdoar o que eu fiz
       F#m   B                 C#m
Pois eu sei que o passado continua aqui
        A    G#m                  C#m
Vou seguir com a ferida no peito que me marcou
F#m   G#m            A     B         A
Tudo que eu sinto é que aos poucos vai sumir

        A    G#m                  C#m
Então será que algum dia a chuva para?
       F#m   B                 C#m
E o frio, que chegou e não quer me deixar
        A       G#m             C#m
Por que será que a chuva insiste em vir onde estou?
F#m   G#m            A     B
Eu só quero não me molhar
        A    G#m                  C#m
Então será que essa chuva não vai parar de cair?
       F#m   B                 C#m
Vou pedir pra você me dar o seu calor
        A       G#m             C#m
Onde estou essa chuva não vai mais me pegar
F#m   G#m            A     B
Vem comigo e juntos nós vamos ficar
Composição de Wagner Thomazoni
Colaboração e revisão:
  • Állan Fernandes
4.120 exibições
    • ½ Tom
    • A
    • Bb
    • B
    • C
    • Db
    • D
    • Eb
    • E
    • F
    • F#
    • G
    • Ab
  • Adicionar à lista

    0 comentários

    Ver todos os comentários

    Conseguiu tocar?

    4 Tocaram 1 Ainda não

    Grave um vídeo tocando Rain e nos envie!

    00:00 / 00:00
    Outros vídeos desta música
    Repetir Qualidade Automático
    Outros vídeos desta música
    00:00 / 00:00
    Automático

    Cifra Club Pro

    Aproveite o Cifra Club com benefícios exclusivos e sem anúncios
    Cifra Club Pro
    Aproveite o Cifra Club com benefícios exclusivos e sem anúncios
    OK