Cifra Club

Cab

Train

Cifra: Principal (violão e guitarra)
tom: Bb
Tabbed by: John L
Email:*

Tuning: Standard

I heard this song on VH1 countdown and was like hey cool song and when I went to get the 
there wasn’t one so here’s a quick version of it. I figured out its not completely 
but its sounds ok.  Remember to add some strumming pattern listen to the song for it
I only didn’t write it out because I don’t have the time.

Intro:
e|--------------------------------------------------------------------------|
B|--------------------------------------------------------------------------|
G|----12--10--------12--12--10----------------------------------------------|
D|--------------13-------------13---10-------13-----------------------------|
A|---------------------------------------13---------------------------------|
E|--------------------------------------------------------------------------|

Verses:
e|----3--3---1--1---3--3--1--1---4--4---4--4--------------------------------|
B|----4--4---1--1---4--4--1--1---4--4---4--4----8--8---8--8-----------------|
G|----5--5---2--2---5--5--2--2---5--5---5--5----8--8---8--8-----------------|
D|----5--5---3--3---5--5--3--3---6--6---6--6----8--8---8--8-----------------|
A|----3--3---3--3---3--3--3--3---6--6---6--6----6--6---6--6-----------------|
E|-----------1--1---------1--1---4--4---4--4--------------------------------|
Repeat this as needed

Chorus:
e|----------4--4------------------------------------------------------------|
B|---3--3---4--4----8-h9------9-p8------------------------------------------|
G|---3--3---5--5----8--8------8--8------------------------------------------|
D|---3--3---6--6----8--8------8--8------------------------------------------|
A|---1--1---6--6----6--6------6--6------------------------------------------|
E|----------4--4------------------------------------------------------------|

Bridge:
e|---1--1----4--4---4--4----------------------------------------------------|
B|---1--1----4--4---4--4---8--8---10-10-------------------------------------|
G|---2--2----5--5---6--6---8--8---10-10-------------------------------------|
D|---3--3----6--6---6--6---8--8---10-10-------------------------------------|
A|---3--3----6--6---6--6---6--6---8--8--------------------------------------|
E|---1--1----4--4---4--4----------------------------------------------------|
             ^Starts singing here repeat twice and on the second time use (x6888x) for 
last two chords. then go back to the chorus.


| /  slide up
|   slide down
| h  hammer-on
| p  pull-off
| ~  vibrato
| +  harmonic
| x  Mute note
============================================================================
00:00 / 00:00
Outros vídeos desta música
Repetir
Outros vídeos desta música
Composição de Brandon Bush / Pat Monahan
2.251 exibições
    • ½ Tom
    • A
    • Bb
    • B
    • C
    • Db
    • D
    • Eb
    • E
    • F
    • F#
    • G
    • Ab
  • Adicionar à lista

    0 comentários

    Ver todos os comentários

    Conseguiu tocar?

    0 Tocaram 0 Ainda não

    Grave um vídeo tocando Cab e nos envie!

    Entre para oCifra Club PRO

    Tenha acesso a benefícios exclusivos no App e no Site

    • Chega de anúncios

    • Prioridade de compra em lançamentos

    • Mais recursos no app do Afinador

    • Atendimento Prioritário

    • Descontos nos produtos Cifra Club

    • Ajude a produzir mais conteúdo

    00:00 / 00:00

    Cifra Club Pro

    Aproveite o Cifra Club com benefícios exclusivos e sem anúncios
    Cifra Club Pro
    Aproveite o Cifra Club com benefícios exclusivos e sem anúncios
    OK