Cifra Club

Feels Good At First

Train

Cifra: Principal (violão e guitarra)
tom: G
Batido Padrão:
     G                            G/C
E|----3------3------3------3-|-----3------3------3------3--|
B|----3------3------3------3-|-----3------3------3------3--|
G|----4------4------4------4-|-----4------4------4------4--|
D|---------------------------|-----------------------------|
A|---------------------------|--3------3------3------3-----|
E|-3------3------3------3----|-----------------------------|

     G/A                          G/E
E|----3------3------3------3-|-----3------3------3------3--|
B|----3------3------3------3-|-----3------3------3------3--|
G|----4------4------4------4-|-----4------4------4------4--|
D|---------------------------|-----------------------------|
A|-0------0------0------0----|-----------------------------|
E|---------------------------|--0-----0------0------0------|

Passagem 1:
     G/D     G/C   G/B    G/A
E|----3------3------3------3-|
B|----3------3------3------3-|
G|----4------4------4------4-|
D|-0-------------------------|
A|---------3-----2------0----|
E|---------------------------|

Passagem 2:
     G/C           G/B            G/A          G
E|----3------3------3------3-|-----3------3------3------3--|
B|----3------3------3------3-|-----3------3------3------3--|
G|----4------4------4------4-|-----4------4------4------4--|
D|---------------------------|-----------------------------|
A|-3------3------2------2----|--0-----0--------------------|
E|---------------------------|---------------3------3------|

     G/F#
E|----3------3------3------3-|-----|
B|----3------3------3------3-|-----|
G|----4------4------4------4-|-----|
D|---------------------------|--0--| (Deixa Soar)
A|---------------------------|-----|
E|-2------2------2------2----|-----|

Intro: G

 G
Teach me a full
         G/C              G/A
And i'd teach you to sing
                                G/D G/C G/B  G/A
When lives keeps stealing your me__lo__dy
G                   G/C
Around your finger  i'll be a string
G/A           G/D G/C    G/B G/A   G/E
I will forget e__very__thing i   know
       G/C            G/E    G/A
About love, i don't know, about love
                G
Sure feels good at first

G                           G/C
I'd learn to dance if you promise not to laugh
G/A
And i'll end up in a cast
     G/D G/C G/B  G/A
For fall_ing o___ver

G                                G/C
And you can't get mad when some girl you think i have
         G/A
Puts a story in your head
        G/D  G/C  G/B  G/A  G/E
When i har_dly   now  her  so
       G/C            G/E    G/A
About love, i don't know, about love
                G
Sure feels good at first

Refrão:
G
Ooh, every spring needs a honey bee that stings
       G/C   G/B    G/A
Some things can't change
G
Ooh, every fire get too close and it reminds you
  G/C   G/B  G/A  G   G/F#
Things can change in love

E|---|
B|---|
G|---|
D|-0-| (Deixar Soar)
A|---|
E|---|
                    G
But sure feels good at first

 G                               G/C
For every heartbreak, there's a sermon to be said
          G/A                          G/D G/C G/B G/A
And this pastor in my head, preaching to the cho___ir
G                              G/C
Don't get me wrong cause it's too soon to decide
           G/A                          G/D    G/C  G/B  G/A  G/E
But the same in my first rodeo when my heart spent road down town
    G/C            G/E    G/A
In love, i don't know, about love
                    G
But sure feels good at first

Refrão:
G
Ooh, every arm kalescome, that you forgotten
       G/C   G/B    G/A
Some things can't change
G
Ooh every frost some live and some are lost

  G/C   G/B  G/A  G  G/F#
Things can change in     love

E|---|
B|---|
G|---|
D|-0-| (Deixar Soar)
A|---|
E|---|

                    G
But sure feels good at first

Outro:
G                  G/C  G/B  G/A
Na na na na na..., mmmmmmmmm.....
G                  G/C  G/B  G/A  G  G/F#
Na na na na na..., mmmmmm...

E|---|
B|---|
G|---|
D|-0-| (Deixar Soar)
A|---|
E|---|
                   G
But sure felt good at first
00:00 / 00:00
Outros vídeos desta música
Repetir
Outros vídeos desta música
Composição de Allen Shamblin
Colaboração e revisão:
  • Gustavo Lacerda
1.141 exibições
    • ½ Tom
    • A
    • Bb
    • B
    • C
    • Db
    • D
    • Eb
    • E
    • F
    • F#
    • G
    • Ab
  • Adicionar à lista

    0 comentários

    Ver todos os comentários

    Entre para oCifra Club PRO

    Tenha acesso a benefícios exclusivos no App e no Site

    • Chega de anúncios

    • Prioridade de compra em lançamentos

    • Mais recursos no app do Afinador

    • Atendimento Prioritário

    • Descontos nos produtos Cifra Club

    • Ajude a produzir mais conteúdo

    00:00 / 00:00

    Cifra Club Pro

    Aproveite o Cifra Club com benefícios exclusivos e sem anúncios
    Cifra Club Pro
    Aproveite o Cifra Club com benefícios exclusivos e sem anúncios
    OK