Cifra Club

If It's Love

Train

Cifra: Principal (violão e guitarra)
tom: F# (forma dos acordes no tom de G) Afinação: Eb Ab Db Gb Bb Eb
G                                        C
  While everybody else is getting out of bed I'm usually getting in it
        G                             C
I'm not in it to win it and there's a thousand ways you can skin it
G                                C
  My feet have been on the floor flat like an idle singer
         G                      C                               G
Remember winger I digress I con-fess you are the best thing in my life
                           C
But I'm afraid when I hear stories about a husband and wife
           G                              C
There's no happy endings no Henry Lee but you are the greatest thing about me

(refrão)
G       D/F#
If it's love
        Em
And we decide that it's forever
       C                 D
No one else could do it better
G      D/F#
If it's love
          Em
And we're two birds of a feather
          C              D
Then the rest is just whatever
    G
And if I'm addicted to loving you
D/F#
And you're addicted to my love too
Em             C
We can be them two birds of a feather
D
That flock together
E|--3-------------|----------------|----------------|----------------|
B|----------------|--0-------------|--2-------------|--3-------------|
G|----0-------0---|----0-------0---|----0-------0---|----0-------0---|
D|------0---0---0-|------0---0---0-|------0---0---0-|------0---0---0-|
A|--------0-------|--------0-------|--------0-------|--------0-------|
E|----------------|----------------|----------------|----------------|
Love, love
Got to have something to keep us together
Love, love
That's enough for me

(verso)
G                              C
  Took a loan on a house I own can't be a queen bee without a bee throne
G                              C
  I wanna buy ya everything except cologne 'cause it's poison
G                                             C
  We can travel to Spain where the rain falls mainly on the plain sounds insane
          G
'cause it is we can laugh we can sing
         C
Have ten kids and give them everything
         G
Hold our cell phones up in the air
            C
And just be glad we made it here alive
     G
On a spinning ball in the middle of space
  C                                 
I love you from your toes to your face

(refrão)
G       D/F#
If it's love
        Em
And we decide that it's forever
       C                   D
No one else could do it better
G      D/F#
If it's love
          Em
And we're two birds of a feather
          C              D
Then the rest is just whatever
    G
And if I'm addicted to loving you
D/F#
And you're addicted to my love too
Em             C
We can be them two birds of a feather
D
That flock together
E|--3-------------|----------------|----------------|----------------|
B|----------------|--0-------------|--2-------------|--3-------------|
G|----0-------0---|----0-------0---|----0-------0---|----0-------0---|
D|------0---0---0-|------0---0---0-|------0---0---0-|------0---0---0-|
A|--------0-------|--------0-------|--------0-------|--------0-------|
E|----------------|----------------|----------------|----------------|
Love, love
Got to have something to keep us together
Love, love
That's enough for me

(ponte)
        Am
You can move in
                  C
I won't ask where you've been
       G             D/F#
'cause everybody has a past
           Am
When we're older
                C
We'll do it all over again

(verso)
G                                       C
  When everybody else is getting out of bed I'm usually getting in it
        G
I'm not in it to win it
          C
I'm in it for you

(refrão)
D/F#
If it's love
          Em
And we're two birds of a feather
          C                D
Then the rest is just whatever

G       D/F#
If it's love
        Em
And we decide that it's forever
       C                    D
No one else could do it better

    G
And if I'm addicted to loving you
D/F#
And you're addicted to my love too
Em             C                   D
We can be them two birds of a feather
E|--3-------------|----------------|----------------|----------------|
B|----------------|--0-------------|--2-------------|--3-------------|
G|----0-------0---|----0-------0---|----0-------0---|----0-------0---|
D|------0---0---0-|------0---0---0-|------0---0---0-|------0---0---0-|
A|--------0-------|--------0-------|--------0-------|--------0-------|
E|----------------|----------------|----------------|----------------|
Love, love
Got to have something to keep us together
Love, love

                     G
That's enough for me
00:00 / 00:00
Outros vídeos desta música
Repetir
Outros vídeos desta música
Composição de Dave Katz / Gregg Wattenberg / Pat Monahan / Sam Hollander
Colaboração e revisão:
  • Marcelo Leite
11.832 exibições
    • ½ Tom
    • A
    • Bb
    • B
    • C
    • Db
    • D
    • Eb
    • E
    • F
    • F#
    • G
    • Ab
  • Adicionar à lista

    0 comentários

    Ver todos os comentários

    Conseguiu tocar?

    4 Tocaram 0 Ainda não

    Grave um vídeo tocando If It's Love e nos envie!

    Entre para oCifra Club PRO

    Tenha acesso a benefícios exclusivos no App e no Site

    • Chega de anúncios

    • Prioridade de compra em lançamentos

    • Mais recursos no app do Afinador

    • Atendimento Prioritário

    • Descontos nos produtos Cifra Club

    • Ajude a produzir mais conteúdo

    00:00 / 00:00

    Cifra Club Pro

    Aproveite o Cifra Club com benefícios exclusivos e sem anúncios
    Cifra Club Pro
    Aproveite o Cifra Club com benefícios exclusivos e sem anúncios
    OK