Cifra Club

Love Will Come Through

Travis

Cifra: Principal (violão e guitarra)
Selo Cifra Club: esta cifra foi revisada para atender aos critérios oficiais da nossa Equipe de Qualidade.
tom: D
Intro, Verso e Refrão: Bm G D F#

E|------------------------------------------|
B|------------------------------------------|
G|--4--6--7--6--7/9--7--6--4--6--4--3-------| 2x
D|------------------------------------------|
A|------------------------------------------|
E|------------------------------------------|

E|------------------------------------------|
B|------------------------------------------|
G|--4--6--7--6--7/9-9/11--9--7--9--7--6-----| 1x
D|------------------------------------------|
A|------------------------------------------|
E|------------------------------------------|

E|------------------------------------------|
B|------------------------------------------|
G|--4--6--7--6--7/9--7--6--4--6--4--3-------| 1x
D|------------------------------------------|
A|------------------------------------------|
E|------------------------------------------|



O pequeno solinho agudo que fica meio inperceptivel durante a musica :

E|---19--17--14--15--14--12--10--9----|-----7--------------------|
B|------------------------------------|--------------------------|
G|------------------------------------|--------------------------|
D|------------------------------------|--------------------------|
A|------------------------------------|--------------------------|
E|------------------------------------|--------------------------|


Bm G D F#
If I told you a secret
You won't tell a soul
Will you hold it and
Keep it alive

Cause it's burning a hole
And I can't get to sleep
And I can't live alone
In this life

So look up, take it away
Don't look da-da-da-down
The mountain

If the world isn't turning
Your heart won't return
Anyone, anything, anyhow

So take me, don't leave me
Take me, don't leave me
Baby, love will come through
It's just waiting for you

And you stand at the crossroads
Of highroads and lowroads
And I've got a feeling
It's right

If it's real what I'm feeling
There's no make believing
The sound of the wings
Of the flight

Of a dove, take it away
Don't look da-da-da-down
The mountain

If the world isn't turning
Your heart won't return
Anyone, anything, anyhow

So take me, don't leave me
Take me, don't leave me
Baby, love will come through
It's just waiting for you

Oh, look up, take it away
Don't look da-da-da-down

If the world isn't turning
Your heart won't return
Anyone, anything, anyhow

So take me, don't leave me
Take me, don't leave me
Baby, love will come through
It's just waiting for you

Love will come through
Love will come through
Love will come through
Outros vídeos desta música
    12.822 exibições
      • ½ Tom
      • A
      • Bb
      • B
      • C
      • Db
      • D
      • Eb
      • E
      • F
      • F#
      • G
      • Ab
    • Adicionar à lista

    Afinação da cifra

    Afinador online

      0 comentários

      Ver todos os comentários

      Conseguiu tocar?

      1Tocaram0Ainda não

      Grave um vídeo tocando Love Will Come Through e nos envie!

      Toque também

      1. Imagem do artista OasisWonderwall Oasis
      2. Imagem do artista KeaneSomewhere Only We Know Keane
      3. Imagem do artista StereophonicsMaybe Tomorrow Stereophonics
      4. Imagem do artista StarsailorWay to Fall Starsailor

      Entre para o Cifra Club PRO

      Tenha acesso a benefícios exclusivos no App e no Site

      • Chega de anúncios

      • Mais recursos no app do Afinador

      • Atendimento Prioritário

      • Aumente seu limite de lista

      • Ajude a produzir mais conteúdo

      Cifra Club Pro

      Aproveite o Cifra Club com benefícios exclusivos e sem anúncios
      Cifra Club Pro
      Aproveite o Cifra Club com benefícios exclusivos e sem anúncios
      OK