Cifra Club

No Limite

Trio R3

Cifra: Principal (violão e guitarra)
tom: E
Intro: E  B  C#m  A

 E                            B
Deus eu fiz tudo que eu podia, Deus suportei até aqui
 C#m                         A
Mas cheguei no meu limite só restou a fé em mim
 E                         B
Deus eu me sinto tão pequeno, mas é tão grande o teu poder
  C#m                         A
Vem me socorre nessa hora não há mais nada que eu possa fazer

 F#m                    G#m
Deus eu sou tão limitado, mas não há limites para ti
 A                     B
Deus pra mim é impossível, mas o senhor pode
 E
Vou te adorar mesmo chorando
 B
Na tua presença é meu descanso
 C#m               B                          A
Porque no meu limite o que eu posso fazer é te adorar
 E
Vou louvar mesmo estando fraco
 B
Pois encontro força em teus braços
 C#m                  B                      A
Porque no meu limite o que eu posso fazer é te adorar


SOLO
E|------------------------------------------------------------------------------|
B|------------------------------------------------------------------------------|
G|----------------9~------9h11p9~------11-----9-----11------11\13~--------------|
D|----9\10----------------------------------------------------------------------|
A|------------------------------------------------------------------------------|
E|------------------------------------------------------------------------------|

E|------------------------------------------------------------------------------|
B|------------------------------------------------------------------------------|
G|----13b14r13-----11-----13------13\14-------14b16---13~-----------------------|
D|------------------------------------------------------------------------------|
A|------------------------------------------------------------------------------|
E|------------------------------------------------------------------------------|

E|------------------------------------------------------------------------------|
B|------------------------------------------------------------------------------|
G|----11-----9------11----------------------------------------------------------|
D|---------------------------------11-------9-----------------------------------|
A|--------------------------------------------------12----11-----9--------------|
E|------------------------------------------------------------------------------|



 F#m                    G#m
Deus eu sou tão limitado, mas não há limites para ti
 A                        B
Deus pra mim é impossível, mas o senhor pode

 E
Vou te adorar mesmo chorando
 B
Na tua presença é meu descanso
 C#m                   B                     A
Porque no meu limite o que eu posso fazer é te adorar
 E
Vou louvar mesmo estando fraco
 B
Pois encontro força em teus braços
 C#m                B                       A
Porque no meu limite o que eu posso fazer é te adorar

 F#m                           G#m
Se estou fraco és as minha força
 A                              B
Se estou cansado és o meu descanso
 E                    B
Eu vou te adorando... Eu vou te adorando
 F#m
Se estou sozinho me faz companhia
 A
Se está escuro faz nascer o dia
 E                       B
Eu vou te adorando... Eu vou te adorando

 E
Vou te adorar mesmo chorando
 B
Na tua presença é meu descanso
 C#m                  B                      A
Porque no meu limite o que eu posso fazer é te adorar
 E
Vou louvar mesmo estando fraco
 B
Pois encontro força em teus braços
 C#m                   B                     A
Porque no meu limite o que eu posso fazer é te adorar  (3x)
00:00 / 00:00
Outros vídeos desta música
Repetir
Outros vídeos desta música
Composição de Pastor Lucas
Colaboração e revisão:
  • lucas felipe
  • Gabriel Alves
9.456 exibições
    • ½ Tom
    • A
    • Bb
    • B
    • C
    • Db
    • D
    • Eb
    • E
    • F
    • F#
    • G
    • Ab
  • Adicionar à lista

    0 comentários

    Ver todos os comentários

    Entre para oCifra Club PRO

    Tenha acesso a benefícios exclusivos no App e no Site

    • Chega de anúncios

    • Prioridade de compra em lançamentos

    • Mais recursos no app do Afinador

    • Atendimento Prioritário

    • Descontos nos produtos Cifra Club

    • Ajude a produzir mais conteúdo

    00:00 / 00:00

    Cifra Club Pro

    Aproveite o Cifra Club com benefícios exclusivos e sem anúncios
    Cifra Club Pro
    Aproveite o Cifra Club com benefícios exclusivos e sem anúncios
    OK