Cifra Club

City Intro

Triumph

Cifra: Principal (violão e guitarra)
Tom: C
Album: Rock And Roll Machine
Year:  1977

(0:00           -       2:22)

Fade In
Drums Enter At 0:18
Guitar Begins At 0:35

----------------------------------------------------[---------------------]-
----------------------------------------------------[---------------------]-
----------------------------------------10--9~~~~~--[---------------------]-
------------------------------10--9~~~--------------[-5--5-5-5-5--5-5-5-5-]-
-------9--8~~~-------10--9~~~-----------------------[-5--5-5-5-5--5-5-5-5-]-
-10~~~----------8~~~--------------------------------[-3--3-3-3-3--3-3-3-3-]-
                                                        [--------PM--------]

--------------------------------------------------------------------------------
--------------------------------------------------------------------------------
----------------------------------------10--9~~-10--10-10-10-10--10--10-10s12---
------------------------------10--9~~~------------------------------------------
-------9--8~~~-------10--9~~~---------------------------------------------------
-10~~~----------8~~~------------------------------------------------------------

Beginning At: (1:15)
---------------------------------------------------|
---------------------------------------------------|
-12-12-12-12---12-12-12-12---12-12-12-15-14-15-12--|
---------------------------------------------------|
---------------------------------------------------|
---------------------------------------------------|

---------------------------------------------------|
---------------------------------------------------|
-12-12-12-12---12-12-12-12---12-12-12-15-14-15-12--|
---------------------------------------------------|
---------------------------------------------------|
---------------------------------------------------|

---------------------------------------------------|
---------------------------------------------------|
-12-12-12-12---12-12-12-12---12-12-12-15-14-15-12--|
---------------------------------------------------|
---------------------------------------------------|
---------------------------------------------------|

-----------------------------------------------------|
-----------------------------------------------------|
-12-12-12-12---12-12-12-12---12-12-12-14-15-14-12h15-|
-----------------------------------------------------|
-----------------------------------------------------|
-----------------------------------------------------|

(1:27)

---------------------------------------------------|
---------------------------------------------------|
-15-15-15-15---15-15-15-15---15-15-15-17-19-17-15--|
---------------------------------------------------|
---------------------------------------------------|
---------------------------------------------------|

---------------------------------------------------|
---------------------------------------------------|
-15-15-15-15---15-15-15-15---15-15-15-17-19-17-15--|
---------------------------------------------------|
---------------------------------------------------|
---------------------------------------------------|

---------------------------------------------------|
---------------------------------------------------|
-15-15-15-15---15-15-15-15---15-15-15-17-19-17-15--|
---------------------------------------------------|
---------------------------------------------------|
---------------------------------------------------|

-----------------------------------------------------|
-------------------------------------------------p14-|
-15-15-15-15---15-15-15-15---15-15-15-17-19-17-15----|
-----------------------------------------------------|
-----------------------------------------------------|
-----------------------------------------------------|

(1:39)
-----------------------------------------------------|
-14-14-14-14---14-14-14-15---15-15-15---17--15--14---|
-----------------------------------------------------|
-----------------------------------------------------|
-----------------------------------------------------|
-----------------------------------------------------|

-----------------------------------------------------|
-14-14-14-14---14-14-14-15---15-15-15---17--15--14---|
-----------------------------------------------------|
-----------------------------------------------------|
-----------------------------------------------------|
-----------------------------------------------------|

-----------------------------------------------------|
-14-14-14-14---14-14-14-15---15-15-15---17--15--14---|
-----------------------------------------------------|
-----------------------------------------------------|
-----------------------------------------------------|
-----------------------------------------------------|

(1:50)
-----------------------------------------------------|
-16-16-16-16---16-16-16-17---17-17-17---19--17--16---|
-----------------------------------------------------|
-----------------------------------------------------|
-----------------------------------------------------|
-----------------------------------------------------|

-----------------------------------------------------|
-16-16-16-16---16-16-16-17---17-17-17---19--17--16---|
-----------------------------------------------------|
-----------------------------------------------------|
-----------------------------------------------------|
-----------------------------------------------------|

-----------------------------------------------------|
-16-16-16-16---16-16-16-17---17-17-17---19--17--16---|
-----------------------------------------------------|
-----------------------------------------------------|
-----------------------------------------------------|
-----------------------------------------------------|

-----------------------------------------------------|
-16-16-16-16---16-16-16-17---17-17-17---19--17--16---|
-----------------------------------------------------|
-----------------------------------------------------|
-----------------------------------------------------|
-----------------------------------------------------|

(2:02           -       2:22)
-----------------------------------|
-17-s-14-s-17-s-14-s-19-19-19--17--|
-----------------------------------|    Repeat Four Times
-----------------------------------|    Repeat Four Times
-----------------------------------|
-----------------------------------|
exibições 138
Acordes para:

    0 comentários

    mostrar mais comentários

    Conseguiu tocar?

    0 tocaram 0 ainda não

    Grave um vídeo tocando City Intro e mande pra gente!

    00:00 / 00:00
    outros vídeos desta música
    repetir qualidade Automático
    Outros vídeos desta música
    00:00 / 00:00
    Automático
    OK